Oops, an error
Loading. Please wait.

Save Your Scissors tab

version 2
version 2

Whole song

Interactive

9,280 views 78 this week
2 commentsread comments
1 2 3 4 5
1 last vote to show rating
add to favorites
×
Save as Personal and add changes to this tab that will be seen only by you. Learn more ›
×
You can save this tab as Personal to edit and correct it or add notes. All changes will be seen only by you. Learn more »
launch autoscroll
font size
0
reset
how to read this tab
guitar tuner
edit
Autoscroll
slow
fast
+/-
esc
set tempo
stop
Artist:Dallas Green/city and colour(whatever u prefer to call it)
Tuning: Standard
Tabbed by: David

ok, so this song is pretty easy just put your capo on the 4th fret, and ur set :)

Intro
|--3--0--3--0-----------------|
|--0--0--0--0-----------------|
|--0--0--0--0-----------------|
|--0--0--0--0-----------------|
|--2--2--2--2-----------------|
|--3--3--0--0-----------------|


Intro 2
|-3p2-0----------------------------------|
|------5-3-0-----------------------------|
|-----------4-2-0------------------------|
|----------------------------------------| x2
|----------------------------------------|
|----------------------------------------|

Then.....

|-----------5--3p2-0---------------------|
|--------------------5-3-0---------------|
|--------------------------4-2-0---------|
|-------------------------------4-2-0-2-0|
|----------------------------------------|
|----------------------------------------|

Verse
|--3--0--3--0-----------------|
|--0--0--0--0-----------------|
|--0--0--0--0-----------------|
|--0--0--0--0-----------------|
|--2--2--2--2-----------------|
|--3--3--0--0-----------------|

After second verse he does this 
|---7-5-0-7-7-5-0-3p2-0---------------------|
|-----------------------3-5-0---------------|
|-----------------------------4-2-0-0-------|
|-------------------------------------------|
|-------------------------------------------|
|-------------------------------------------|


chorus
|----------------|
|----------------|
|----------------|
|----------------|
|-7--5--2--10----|
|-5--3--0--8-----|

Ending chord
|-3-|
|-0-|
|-0-|
|-0-|
|-2-|
|-3-|

Plz rate my song!!!!!!
Suggest correction
Creating personal tab
Creating personal tab
You can edit any tab online and save it as your Personal.

You can edit, replace or remove any tab part or add personal notes – all changes will be seen only by you.

Personal tabs can be accessed anytime from any device, even offline.
Learn more »
Give kudos to tab author, rate the tab!
1 2 3 4 5
comments
print report bad tab
2 comments total.
0 reply
NirvanaFan101 31 Jul 02, 2006 05:57 AM

LAST NIGHT I SAW DALLAS LIVE AND IN THE CHORUS FOR SAVE YOUR SCISSORS HE DOES SOMETHING IN THE 15-17ISH FRET! JUST SO YOU KNOW! TRY TO FIGURE IT OUT!

0 reply
gsh43 16 Oct 29, 2006 07:23 PM

......................ok.......yea.....u hu.............right.......................yep.............................................What?

guest
You may want to rate the tab now too:
select rating
Wanna post a correction for this tab? Suggest correction