Oops, an error
Loading. Please wait.

Save Your Scissors tab

version 3
version 3

Whole song

Interactive

46,710 views 24 this week
9 commentsread comments
1 2 3 4 5
x 17
add to favorites
×
Save as Personal and add changes to this tab that will be seen only by you. Learn more ›
×
You can save this tab as Personal to edit and correct it or add notes. All changes will be seen only by you. Learn more »
launch autoscroll
font size
0
reset
how to read this tab
guitar tuner
edit
Autoscroll
slow
fast
+/-
esc
set tempo
stop
Save Your Scissors: Dallas Green
Tabbed by: Kristina Clouthier (ktulu_x666x@hotmail.com)
Tuning: standard
Capo on 4th fret

*To print out this tab, copy (excluding all this nonsense except the title and artist)
paste on microsoft word, click on file, page setup, paper size and change to landscape.
sure the font is Courier New in size 11. It should print out quite nicely! This is the 
tab I've posted online so I hope you enjoy and if you find any errors (I'm 99.9% sure
aren't any) feel free to email me. >>> If you're pleased with it please rate with a 5! :)

[Intro]
|---3--2p0-0--------------3--2p0-0--------------3/5-3p2p0-------------------------------------|
|---0--------3p1-0--------0--------3p1-0--------0---------/5-3-p1-----------------------------|
|-0-0--------------2p0--0-0--------------2p0----0------------------2/4-2p0--------------------|
|-0-0-------------------0-0-------------------0-0--------------------------2/4-2-/2-0h2p0-----|
|-0-0-------------------0-0-------------------0-0-----------------------------------------3-2-|
|-3-3-------------------3-3-------------------0-0---------------------------------------------|

|-3p2p0-0-----------3--2p0-0-------------/5-3p2p0---------------------------------|
|---------3p1-0--------------3p1-0----------------/5-3p1--------------------------|
|---------------2p0----------------2p0-------------------2/4-2p0------------------|
|----------------------------------------------------------------2/4-2-0-/2-0-----|
|-----------------------------------------------------------------------------3-2-|
|---------------------------------------------------------------------------------|

[Verse] (4x)
|---3--2-2--0-0--0-0-0-0-0-0-|----|---3--2-2--0-0--0-0-0-0-0-0-|----|
|---0--0-0--0-0--0-0-0-0-0-0-|----|---0--0-0--0-0--0-0-0-0-0-0-|----|
|-0-0--0-0--0-0--0-0-0-0-0-0-|-2×-|-0-0--0-0--0-0--0-0-0-0-0-0-|-2×-|
|-0-0--0-0--0-0--0-0-0-0-0-0-|----|-0-0--0-0--0-0--0-0-0-0-0-0-|----|
|-0-0--0-0--0-0--0-0-0-0-0-0-|----|-0-0--0-0--0-0--0-0-0-0-0-0-|----|
|-3-3--3-3--3-3--3-3-3-3-3-3-|----|-0-0--0-0--0-0--0-0-0-0-0-0-|----|
  D D  U D  U U  D U D U D U        D D  U D  U U  D U D U D U

End 4th with:
|---0----0-0--0-0--0-0-0-0-0-0-|
|---0----0-0--0-0--0-0-0-0-0-0-|
|-2-2/4--4-4--2-2--2-2-2-0-0-0-|
|-0-0----0-0--0-0--0-0-0-0-0-0-|
|-0-0----0-0--0-0--0-0-0-0-0-0-|
|-0-0----0-0--0-0--0-0-0-0-0-0-|
  D D    U D  U U  D U D U D U

[Chorus] (2x)
|---0--0-0--0-0--0-0-0-0-0-0----0--0-0--0-0--0-0-0-0-0-0-|
|---0--0-0--0-0--0-0-0-0-0-0----0--0-0--0-0--0-0-0-0-0-0-|
|-7-7--7-7--7-7--7-7-7-7-7-7--5-5--5-5--4-4--4-4-4-4-4-4-|
|-7-7--7-7--7-7--7-7-7-7-7-7--5-5--5-5--5-5--5-5-5-5-5-5-|
|-7-7--7-7--7-7--7-7-7-7-7-7--5-5--5-5--5-5--5-5-5-5-5-5-|
|-5-5--5-5--5-5--5-5-5-5-5-5--3-3--3-3--3-3--3-3-3-3-3-3-|
  D D  U D  U U  D U D U D U  D D  U D  U U  D U D U D U

|---0--0-0--0-0--0-0-0-0-0-0-----0---0--0---0-0--0-0-0-0-0-0-|
|---0--0-0--0-0--0-0-0-0-0-0-----0---0--0---0-0--0-0-0-0-0-0-|
|-5-5--5-5--4-4--4-4-4-4-4-4-----0---0--0---0-0--0-0-0-0-0-0-|
|-5-5--5-5--5-5--5-5-5-5-5-5--10-10--10-10--9-9--9-9-9-9-9-9-|
|-0-0--0-0--0-0--0-0-0-0-0-0--8--8---8--8---8-8--8-8-8-8-8-8-|
|-0-0--0-0--0-0--0-0-0-0-0-0--8--8---8--8---8-8--8-8-8-8-8-8-|
  D D  U D  U U  D U D U D U  D  D   U  D   U U  D U D U D U

End 2nd with:
|---0--0-0--0-0--0-0-0-0-0-0-|
|---0--0-0--0-0--0-0-0-0-0-0-|
|---0--0-0--0-0--0-0-0-0-0-0-|
|-9-9--9-9--9-9--9-9-9-9-9-9-|
|-8-8--8-8--8-8--8-8-8-8-8-8-|
|-8-8--8-8--8-8--8-8-8-8-8-8-|
  D D  U D  U U  D U D U D U

|----3--2p0-0--------------3--2p0-0--------------3/5-3p2p0-----------------------------------|
|----0--------3p1-0--------0--------3p1-0--------0---------/5-3-p1---------------------------|
|--0-0--------------2p0--0-0--------------2p0----0------------------2/4-2p0------------------|
|--0-0-------------------0-0-------------------0-0--------------------------2/4-2-0-/2-0-----|
|--0-0-------------------0-0-------------------0-0---------------------------------------3-2-|
|--3-3-------------------3-3-------------------0-0-------------------------------------------|

|-3p2p0-0-----------3--2p0-0-------------/7-5p3p0-/7-5p3-5p3-0-3----------------------|
|---------3p1-0--------------3p1-0-------------------------------5-5~-3p0-0-----------|
|---------------2p0----------------2p0--------------------------------------2p0-------|
|-------------------------------------------------------------------------------2-2p0-|
|-------------------------------------------------------------------------------------|
|-------------------------------------------------------------------------------------|

[Verse] (4x)
|---3--2-2--0-0--0-0-0-0-0-0-|----|---3--2-2--0-0--0-0-0-0-0-0-|----|
|---0--0-0--0-0--0-0-0-0-0-0-|----|---0--0-0--0-0--0-0-0-0-0-0-|----|
|-0-0--0-0--0-0--0-0-0-0-0-0-|-2×-|-0-0--0-0--0-0--0-0-0-0-0-0-|-2×-|
|-0-0--0-0--0-0--0-0-0-0-0-0-|----|-0-0--0-0--0-0--0-0-0-0-0-0-|----|
|-0-0--0-0--0-0--0-0-0-0-0-0-|----|-0-0--0-0--0-0--0-0-0-0-0-0-|----|
|-3-3--3-3--3-3--3-3-3-3-3-3-|----|-0-0--0-0--0-0--0-0-0-0-0-0-|----|
  D D  U D  U U  D U D U D U        D D  U D  U U  D U D U D U

End 4th with:
|---0----0-0--0-0--0-0-0-0-0-0-|
|---0----0-0--0-0--0-0-0-0-0-0-|
|-2-2/4--4-4--2-2--2-2-2-0-0-0-|
|-0-0----0-0--0-0--0-0-0-0-0-0-|
|-0-0----0-0--0-0--0-0-0-0-0-0-|
|-0-0----0-0--0-0--0-0-0-0-0-0-|
  D D    U D  U U  D U D U D

[Chorus] (2x)
|---0--0-0--0-0--0-0-0-0-0-0----0--0-0--0-0--0-0-0-0-0-0-|
|---0--0-0--0-0--0-0-0-0-0-0----0--0-0--0-0--0-0-0-0-0-0-|
|-7-7--7-7--7-7--7-7-7-7-7-7--5-5--5-5--4-4--4-4-4-4-4-4-|
|-7-7--7-7--7-7--7-7-7-7-7-7--5-5--5-5--5-5--5-5-5-5-5-5-|
|-7-7--7-7--7-7--7-7-7-7-7-7--5-5--5-5--5-5--5-5-5-5-5-5-|
|-5-5--5-5--5-5--5-5-5-5-5-5--3-3--3-3--3-3--3-3-3-3-3-3-|
  D D  U D  U U  D U D U D U  D D  U D  U U  D U D U D U

|---0--0-0--0-0--0-0-0-0-0-0-----0---0--0---0-0--0-0-0-0-0-0-|
|---0--0-0--0-0--0-0-0-0-0-0-----0---0--0---0-0--0-0-0-0-0-0-|
|-5-5--5-5--4-4--4-4-4-4-4-4-----0---0--0---0-0--0-0-0-0-0-0-|
|-5-5--5-5--5-5--5-5-5-5-5-5--10-10--10-10--9-9--9-9-9-9-9-9-|
|-0-0--0-0--0-0--0-0-0-0-0-0--8--8---8--8---8-8--8-8-8-8-8-8-|
|-0-0--0-0--0-0--0-0-0-0-0-0--8--8---8--8---8-8--8-8-8-8-8-8-|
  D D  U D  U U  D U D U D U  D  D   U  D   U U  D U D U D U

End 2nd with:
|---0--0-0--0-0--0-0-0-0-0-0-|
|---0--0-0--0-0--0-0-0-0-0-0-|
|---0--0-0--0-0--0-0-0-0-0-0-|
|-9-9--9-9--9-9--9-9-9-9-9-9-|
|-8-8--8-8--8-8--8-8-8-8-8-8-|
|-8-8--8-8--8-8--8-8-8-8-8-8-|
  D D  U D  U U  D U D U D U

[Verse] (2x)
e|---3--2-2--0-0--0-0-0-0-0-0-|----|---3--2-2--0-0--0-0-0-0-0-0-|----|
C|---0--0-0--0-0--0-0-0-0-0-0-|----|---0--0-0--0-0--0-0-0-0-0-0-|----|
G|-0-0--0-0--0-0--0-0-0-0-0-0-|-2×-|-0-0--0-0--0-0--0-0-0-0-0-0-|-2×-|
D|-0-0--0-0--0-0--0-0-0-0-0-0-|----|-0-0--0-0--0-0--0-0-0-0-0-0-|----|
B|-0-0--0-0--0-0--0-0-0-0-0-0-|----|-0-0--0-0--0-0--0-0-0-0-0-0-|----|
E|-3-3--3-3--3-3--3-3-3-3-3-3-|----|-0-0--0-0--0-0--0-0-0-0-0-0-|----|
   D D  U D  U U  D U D U D U        D D  U D  U U  D U D U D U

End 2nd with:
e|---0----0-0--0-0--0-0-0-0-0-0-|
C|---0----0-0--0-0--0-0-0-0-0-0-|
G|-2-2/4--4-4--2-2--2-2-2-0-0-0-|
D|-0-0----0-0--0-0--0-0-0-0-0-0-|
B|-0-0----0-0--0-0--0-0-0-0-0-0-|
E|-0-0----0-0--0-0--0-0-0-0-0-0-|
   D D    U D  U U  D U D U D U

[Chorus] (2x)
|---0--0-0--0-0--0-0-0-0-0-0----0--0-0--0-0--0-0-0-0-0-0-|
|---0--0-0--0-0--0-0-0-0-0-0----0--0-0--0-0--0-0-0-0-0-0-|
|-7-7--7-7--7-7--7-7-7-7-7-7--5-5--5-5--4-4--4-4-4-4-4-4-|
|-7-7--7-7--7-7--7-7-7-7-7-7--5-5--5-5--5-5--5-5-5-5-5-5-|
|-7-7--7-7--7-7--7-7-7-7-7-7--5-5--5-5--5-5--5-5-5-5-5-5-|
|-5-5--5-5--5-5--5-5-5-5-5-5--3-3--3-3--3-3--3-3-3-3-3-3-|
  D D  U D  U U  D U D U D U  D D  U D  U U  D U D U D U

|---0--0-0--0-0--0-0-0-0-0-0-----0---0--0---0-0--0-0-0-0-0-0-|
|---0--0-0--0-0--0-0-0-0-0-0-----0---0--0---0-0--0-0-0-0-0-0-|
|-5-5--5-5--4-4--4-4-4-4-4-4-----0---0--0---0-0--0-0-0-0-0-0-|
|-5-5--5-5--5-5--5-5-5-5-5-5--10-10--10-10--9-9--9-9-9-9-9-9-|
|-0-0--0-0--0-0--0-0-0-0-0-0--8--8---8--8---8-8--8-8-8-8-8-8-|
|-0-0--0-0--0-0--0-0-0-0-0-0--8--8---8--8---8-8--8-8-8-8-8-8-|
  D D  U D  U U  D U D U D U  D  D   U  D   U U  D U D U D U

End 2nd with:
|---0--0-0--0-0--0-0-0-0-0-0-|
|---0--0-0--0-0--0-0-0-0-0-0-|
|---0--0-0--0-0--0-0-0-0-0-0-|
|-9-9--9-9--9-9--9-9-9-9-9-9-|
|-8-8--8-8--8-8--8-8-8-8-8-8-|
|-8-8--8-8--8-8--8-8-8-8-8-8-|
  D D  U D  U U  D U D U D U

|----3--2p0-0--------------3--2p0-0--------------3/5-3p2p0-----------------------------------|
|----0--------3p1-0--------0--------3p1-0--------0---------/5-3-p1---------------------------|
|--0-0--------------2p0--0-0--------------2p0----0------------------2/4-2p0------------------|
|--0-0-------------------0-0-------------------0-0--------------------------2/4-2-0-/2-0-----|
|--0-0-------------------0-0-------------------0-0---------------------------------------3-2-|
|--3-3-------------------3-3-------------------0-0-------------------------------------------|

|-3p2p0-0-----------3--2p0-0-------------/7-5p3p0-/7-5p3-5p3-0-3------------------------3-|
|---------3p1-0--------------3p1-0-------------------------------5-5~-3p-0--------------0-|
|---------------2p0----------------2p0-------------------------------------2po--------0-0-|
|------------------------------------------------------------------------------2-2p0--0-0-|
|-------------------------------------------------------------------------------------0-0-|
|-------------------------------------------------------------------------------------3-3-|
Suggest correction
Creating personal tab
Creating personal tab
You can edit any tab online and save it as your Personal.

You can edit, replace or remove any tab part or add personal notes – all changes will be seen only by you.

Personal tabs can be accessed anytime from any device, even offline.
Learn more »
comments
print report bad tab
9 comments total. Showing first comments.
0 reply
radcore 10 Feb 29, 2008 12:45 PM

nice job drooge i love playing it wait to play it. nice one!

0 reply
radcore 10 Feb 29, 2008 12:47 PM

gosh i'm silly that doesn't even make sense i love playing it that's what i meant to say lol

0 reply
Guitar8000 50 Mar 08, 2008 11:15 AM

Great Tab. Tab one is better but its missing some part in between the cords that u have obviously picked up on. The tuning in one sounds better but this one sounds good aswell. Overall a great job 5 stars.

guest
Wanna post a correction for this tab? Suggest correction