Oops, an error
Loading. Please wait.

Thirst chords

version 2
version 2

Whole song

24,354 views 45 this week
1 commentread comment
1 2 3 4 5
x 11
add to favorites
×
Save as Personal and add changes to this tab that will be seen only by you. Learn more ›
×
You can save this tab as Personal to edit and correct it or add notes. All changes will be seen only by you. Learn more »
launch autoscroll
font size
0
reset
transpose
0
reset
display chords
guitar tuner
edit
Autoscroll
slow
fast
+/-
esc
set tempo
stop
Author
Difficulty
Strumming
There is no strumming pattern for this song yet. and get +5 IQ
No Capo Required!
You can play each of riffs on many different locations on the neck. 
The ones I have tabbed out are the easiest or give the best tone in my opinion. 

Intro/Riff

e|--------------------------------------------|
B|--------------------------------------------|
G|--------------------------------------------|
D|------7----------7----------7----------7----|
A|--------------------------------------------|  
E|--5h7---7----5h7---7----5h7---7----5h7---7--|

e|--------------------------------------------|
B|--------------------------------------------|
G|--------------------------------------------|
D|------4----------4----------7----------7----|
A|--------------------------------------------|  
E|--2\3---3----2\3---3----5h7---7----5h7---7--|

Chorus (See below for chords that are starred.)


Em                 G                   Bm          A    (A*)
In the midst of a storm searching for shelter

Em       G               Bm          A    (A*)
I came upon one single feather

Em              G                Bm          A  
A half-hearted wish for something better

A             Em    (Em*)
Gracefully cursed            I thirst




Verse
- Repeat intro/riff





Starred Chords: Little riffs that Dallas does, play around with it. 


        (A*)
e|--0------0-------|
B|--2h3p2--2-------|
G|--2------2-------|
D|--2------2-------|
A|--0------0-------|  
E|-----------------|

       (Em*)            Or              (Em*)
e|--3-2-0h2--------|          e|-------------------|
B|----------3------|          B|--8-7-5h7----------|
G|-----------------|          G|----------7--------|
D|-----------------|          D|-------------------|    
A|-----------------|          A|-------------------|  
E|-----------------|          E|-------------------|


            
            
Suggest correction
Creating personal tab
Creating personal tab
You can edit any tab online and save it as your Personal.

You can edit, replace or remove any tab part or add personal notes – all changes will be seen only by you.

Personal tabs can be accessed anytime from any device, even offline.
Learn more »
comments
print report bad tab
1 comment total.
+4 reply
devanswaine 52 Jun 12, 2013 01:04 AM

I'd like to add that the palm muted riff Dallas adds is the Bm chord without the bass note B or the high F#.
e|x-x-x-x-x-x-x-x-x-x-x-x-x-x-x-x|
B|5-5-5-5-5-5-5-5-3-3-3-3-3-3-3-3|
G|4-4-4-4-4-4-4-4-4-4-4-4-4-4-4-4|
D|4-4-4-4-4-4-4-4-4-4-4-4-4-4-4-4|
A|0-0-0-0-0-0-0-0-0-0-0-0-0-0-0-0|
E|x-x-x-x-x-x-x-x-x-x-x-x-x-x-x-x|

guest
You may want to rate the tab now too:
select rating
Wanna post a correction for this tab? Suggest correction