Oops, an error
Loading. Please wait.

Wasted Love tab

version 1
version 1

Whole song

Interactive

5,529 views 12 this week
1 commentread comment
1 2 3 4 5
x 5
add to favorites
×
Save as Personal and add changes to this tab that will be seen only by you. Learn more ›
×
You can save this tab as Personal to edit and correct it or add notes. All changes will be seen only by you. Learn more »
launch autoscroll
font size
0
reset
how to read this tab
guitar tuner
edit
Autoscroll
slow
fast
+/-
esc
set tempo
stop
Artist: City and Colour
Song: Wasted Love
Album: If I Should Go Before You (2015)


TUNING: E Standard (E A D G B e) Rhythm Guitar - CAPO 3rd fret
        E Standard (E A D G B e) Lead Guitar

NOTE: Chords relative to capo


INTRO/INTERLUDE (Rhythm)

    Bm       D     Em       G   
e|--2--------2p0---0------------|
B|--3--------3-----0--------3---|
G|--4--------2-----0--------0---|
D|--4--------0-----2--------0---|
A|--2--------------2--------2---|
E|-----------------0--------3---|

(Lead)
e|-----------------|
B|--------10h11~---|
G|-----10----------|
D|--12-------------|
A|-----------------|
E|-----------------|



VERSE x4 (on 4th repeat, end on Em)

    Bm       D     Em       G   
e|--2--------2p0---0------------|
B|--3--------3-----0--------3---|
G|--4--------2-----0--------0---|
D|--4--------0-----2--------0---|
A|--2--------------2--------2---|
E|-----------------0--------3---|



CHORUS x2

    Em      G       Bm      A     
e|--0---------------2-------0-----|
B|--0-------3-------3-------2-----|
G|--0-------0-------4-------2-----|
D|--2-------0-------4-------2-----|
A|--2-------2-------2-------0-----|
E|--0-------3---------------------|


INTERLUDE x2


VERSE x4 (on 4th repeat, end on Em)

(Lead) "Careless love.."
e|--------------|
B|--------------|
G|------2-------|
D|--0-3---3/5~--|
A|--------------|
E|--------------|


CHORUS x2


SOLO (Lead)

e|------------|--------------------------8--8----8----8----------------|
B|------------|---------------6---6-8-10----8h10-8h10-8h10--8\6---8----|
G|----------5-|-7~----5---5h7---7-------------------------------7------|
D|--3-3-5/7---|---------7----------------------------------------------|
A|------------|--------------------------------------------------------|
E|------------|--------------------------------------------------------|


e|----------------------------------------------------------------------|
B|--6p5---------------------------------6p5---5---5---------------------|
G|------7-5h7-5----------------5---5h7------7---7----7-5h7--5-----------|
D|--------------5h7--5\3---3/5---5----------------------------7-5\3-----|
A|-----------------------5------------------------------------------5~--|
E|----------------------------------------------------------------------|


SOLO (Rhythm) x2

    Em      G       Bm      A     
e|--0---------------2-------0-----|
B|--0-------3-------3-------2-----|
G|--0-------0-------4-------2-----|
D|--2-------0-------4-------2-----|
A|--2-------2-------2-------0-----|
E|--0-------3---------------------|



INTERLUDE x4 (only play the G on 3rd repeat)

    Bm       D     Em        G   
e|--2--------2p0---0-----|-------|
B|--3--------3-----0-----|---3---|
G|--4--------2-----0-----|---0---|
D|--4--------0-----2-----|---0---|
A|--2--------------2-----|---2---|
E|-----------------0-----|---3---|


CHORUS x4


OUTRO x4 (end on Bm)

    Bm       D     Em       G   
e|--2--------2p0---0------------|
B|--3--------3-----0--------3---|
G|--4--------2-----0--------0---|
D|--4--------0-----2--------0---|
A|--2--------------2--------2---|
E|-----------------0--------3---|

(Lead)
e|------------------------------------------------------------|
B|--------10h11~---------10h11~----------------------10h11~---|
G|-----10-------------10--------------2-----------10----------|
D|--12-------------12-------------0-3---3/5~---12-------------|
A|------------------------------------------------------------|
E|------------------------------------------------------------|



| Tab Legend |

/   slide up
\   slide down
h   hammer-on
p   pull-off
~   let ring
Suggest correction
Creating personal tab
Creating personal tab
You can edit any tab online and save it as your Personal.

You can edit, replace or remove any tab part or add personal notes – all changes will be seen only by you.

Personal tabs can be accessed anytime from any device, even offline.
Learn more »
comments
print report bad tab
1 comment total.
+2 reply
mikezanier 232 Sep 20, 2015 01:58 PM

Was in the "Wasted Love" music video and watched Dallas play this song many times on his guitar. This is how he played it, well done.

guest
You may want to rate the tab now too:
select rating
Wanna post a correction for this tab? Suggest correction