Oops, an error
Loading. Please wait.

Wasted Love chords

version 4
version 4

Whole song

Interactive

9,559 views 27 this week
no commentswrite comment
1 2 3 4 5
x 25
add to favorites
×
Save as Personal and add changes to this tab that will be seen only by you. Learn more ›
×
You can save this tab as Personal to edit and correct it or add notes. All changes will be seen only by you. Learn more »
launch autoscroll
font size
0
reset
transpose
0
reset
display chords
guitar tuner
edit
Autoscroll
slow
fast
+/-
esc
set tempo
stop
Strumming
There is no strumming pattern for this song yet. and get +5 IQ
City and Colour - Wasted Love
Capo 3rd          

Intro   
 Bm            |Em            ||x4           gtr II
------------2p0|----0---------|               -------------2h|-3~-----------|
----3----------|----0----0--0-|               ----3------3---|(3)~----------|
----4----------|----0----0--0-|               ----4---/4-----|--------------|
----4----------|----2----0--2-|               ----4----------|--------------|
-2--2----------|----2-------2-|               -2--2----------|--------------|
---------------|-0--0-------0-|               ---------------|--------------|


Verse 1
           Bm   
 Careless love 
Em                        Bm
 Quit pouring honey in my ears
Em                                 Bm                      
 You're speaking diamonds crystal clear
Em                       Bm     Em
 So far away I want you near


Chorus
                Em                   G
 Crying out for more, just a little more
                    Bm                      A
 Tied down on the floor like a prisoner of war
 Em                     G
 Oh, I've been down so long
                Bm                A                Bm    
 Day is nearly gone, I must carry on with this wasted love


Interlude    (Bm)    |Em     |Bm     |Em     ||
  

Verse 2
           Bm   *                                *  ----------------
 Careless love                                      ----------------
Em                                   Bm             ----------------
 There's more to say than should be said            ----0-4-0-2\----
Em                                     Bm           -/2-------------
 Can't get these words straight in my head          ----------------
Em                   Bm          Em
 You make me feel so powerless


Chorus
                     Em                  G
 I'm crying out for more, just a little more
                    Bm                      A
 Tied down on the floor like a prisoner of war
 Em                     G
 Oh, I've been down so long
                Bm                A             Em    
 Day is nearly gone, I must carry on with this wasted love

Solo    
     |(Em)         |G                |Bm                 |A               |
-----|-------------|-----------------|------8--8----8----|8---------------|
-----|-------------|-------------6---|6-8/10---8h10-8h10-|8h10--8------6h8|
---5-|5h7--5h7--5h7|-p5---5-5h7----7-|-------------------|------------7---|
/7---|-------------|----7------------|-------------------|----------------|
-----|-------------|-----------------|-------------------|----------------|
-----|-------------|-----------------|-------------------|----------------|

 Em                |G                |Bm             |A          -     ||
-------------------|-----------------|---------------|-----------------|---
(8)-6p5------------|-----------------|---6---5-----5-|-----------------|---
-------7--5h7-5----|-----------5---7-|-----7---7-7---|--7-5h7---5------|---
----------------5h7|-5\3---5/7---7---|---------------|------------7-5\3|---
-------------------|-----5-----------|---------------|-----------------|-5-
-------------------|-----------------|---------------|-----------------|---


        Bm   Em   Bm   Em
Wasted love
        Bm   Em   Bm   Em
Wasted love


Chorus
                 Em                  G
 Crying out for more, just a little more
                    Bm                      A
 Tied down on the floor like a prisoner of war
 Em                     G
 Oh, I've been down so long
                Bm                A             Em     G    Bm    A
 Day is nearly gone, I must carry on with this wasted love
  Em G   Bm   A
 Wasted love


Outro   Bm   |Em    ||x4         Bm
                         Wasted love

            
            
Suggest correction
Creating personal tab
Creating personal tab
You can edit any tab online and save it as your Personal.

You can edit, replace or remove any tab part or add personal notes – all changes will be seen only by you.

Personal tabs can be accessed anytime from any device, even offline.
Learn more »
comments
print report bad tab
guest
You may want to rate the tab now too:
select rating
Wanna post a correction for this tab? Suggest correction