Oops, an error
Loading. Please wait.

Woman tab

4,502 views 33 this week
1 commentread comment
1 2 3 4 5
x 10
add to favorites
×
Save as Personal and add changes to this tab that will be seen only by you. Learn more ›
×
You can save this tab as Personal to edit and correct it or add notes. All changes will be seen only by you. Learn more »
launch autoscroll
font size
0
reset
how to read this tab
guitar tuner
edit
Autoscroll
slow
fast
+/-
esc
set tempo
stop
Author
Difficulty
intermediate
Standard Tuning no capo

/ = Slide Down
\ = Slide up


High Neck Melody
e|--------------------------------10-----------------|
B|---------10-------------12-------------------------|
G|--9-12-9----11\12/11--9---12--9----11\12/11--------|
D|---------------------------------------------------|
A|---------------------------------------------------|
E|---------------------------------------------------|

Low Neck Melody
e|-----------------|-------------------|
B|-----------------|-------------------|
G|-----------------|-------------------|
D|-----------------|---------0---------|
A|--------0--------|---2---------------|
E|--0-3-0---2-h3p2-|-0---3-0---2-h3p2--|


Chords - Only strum the top 3 strings 

   Em  D
E|-------|
B|-------|
G|-------|
D|-2---4-|
A|-2---5-|
E|-0---5-|

 

INTRO
(High Neck Melody)4X
e|--------------------------------10-----------------|
B|---------10-------------12-------------------------|
G|--9-12-9----11\12/11--9---12--9----11\12/11--------|
D|---------------------------------------------------|
A|---------------------------------------------------|
E|---------------------------------------------------|

VERSE - Just a bunch of guitar affects a bass guitar. 

  Woman, My love is never ending
  Like a sea without a shore
 
  Woman, I'm a fool guilty of old crimes
  But you are the one I adore

  Woman, When the world has emptied
  and the planet is covered in dust

  I will stand beneath the silver moon rising
  Waiting to resurrect our love


INSTRUMENTAL 
(High Neck Melody)3+1/2X
e|--------------------------------10-----------------|
B|---------10-------------12-------------------------|
G|--9-12-9----11\12/11--9---12--9----11\12/11--------|
D|---------------------------------------------------|
A|---------------------------------------------------|
E|---------------------------------------------------|

VERSE 2
Em                                D  
  Woman, My love is never ending

Em                           D 
  Like a sea without a shore

Em                                       D
  Woman, I'm a fool guilty of old crimes

Em                            D
  But you are the one I adore

Em                                  D
  Woman, When the world has emptied

Em                                 D
  and the planet is covered in dust

Em                                                  D
  I will stand stand beneath the silver moon rising
  
Em  
   Waiting to resurrect our love


2nd INSTRUMENTAL 
(Low Neck Melody)4X
e|----------------------------------|
B|----------------------------------|
G|----------------------------------|
D|------------------------0---------|
A|--------0---------2---------------|
E|--0-3-0---2\3/2-0---3-0---2\3-----|

(High Neck Melody) 4X
e|--------------------------------10-----------------|
B|---------10-------------12-------------------------|
G|--9-12-9----11\12/11--9---12--9----11\12/11--------|
D|---------------------------------------------------|
A|---------------------------------------------------|
E|---------------------------------------------------|

(Solo) 2X
e|--------------------------------|
B|--------------------------------|
G|--12----12\14/11---12\11/7\9----|
D|--------------------------------|
A|--------------------------------|
E|--------------------------------|


VERSE 3
N.C.
  Woman, My love is never ending
N.C.
  Like a sea without a shore
N.C.
  Woman, I'm a fool guilty of old crimes
N.C.
  But you are the one I adore

Em                                  D
  Woman, When the world has emptied

Em                                 D
  and the planet is covered in dust

Em                                                  D
  I will stand stand beneath the silver moon rising
  
Em  
   Waiting to resurrect our love


3rd INSTRUMENTAL 
(Low Neck Melody)4X
e|-----------------|-------------------|
B|-----------------|-------------------|
G|-----------------|-------------------|
D|-----------------|---------0---------|
A|--------0--------|---2---------------|
E|--0-3-0---2-h3p2-|-0---3-0---2-h3p2--|

(Solo)8X
e|--------------------------------|
B|--------------------------------|
G|--12----12\14/11---12\11/7\9----|
D|--------------------------------|
A|--------------------------------|
E|--------------------------------|

            
            
Suggest correction
Creating personal tab
Creating personal tab
You can edit any tab online and save it as your Personal.

You can edit, replace or remove any tab part or add personal notes – all changes will be seen only by you.

Personal tabs can be accessed anytime from any device, even offline.
Learn more »
comments
print report bad tab
1 comment total.
0 reply
rbcrowken 10 Mar 26, 2017 12:13 PM

Good job, got me started on the song. The riffs were very close, a little listening and tweaking.

guest
You may want to rate the tab now too:
select rating
Wanna post a correction for this tab? Suggest correction