Oops, an error
Loading. Please wait.

The Purge tab

version 1
version 1

Whole song

Interactive

52 views 3 this week
no commentswrite comment
1 2 3 4 5
3 more votes to show rating
add to favorites
×
Save as Personal and add changes to this tab that will be seen only by you. Learn more ›
×
You can save this tab as Personal to edit and correct it or add notes. All changes will be seen only by you. Learn more »
launch autoscroll
font size
0
reset
how to read this tab
guitar tuner
edit
Autoscroll
slow
fast
+/-
esc
set tempo
stop
[The Purge]
[Below The Noise]
[City In The Sea]

Tuning: Bb F Bb Eb G C
Playthrough: https://www.youtube.com/watch?v=QdzX-WdGCfk

[Riff 1a] - [00:13] - [00:42]
- ----------------------------------------------------------------------------
- ----------------------------------------------------------------------------
- ----------------------------------------------------------------------------
- -12-0-0-12-0-0-12-0-0-12-0-0-15-0-14-0-12-0-0-12-0-0-12-0-0-12-0-0-8-0-10-0-
- ----------------------------------------------------------------------------
- ----------------------------------------------------------------------------

- ---------------------------------------------------------------------------------------
- ---------------------------------------------------------------------------------------
- ---------------------------------------14----------------------12----------------------
- -12-0-0-12-0-0-12-0-0-12-0-0-15-0-14-0----12-14-15-14-12-14-15----10-12-14-12-10-12-14-
- ---------------------------------------------------------------------------------------
- ---------------------------------------------------------------------------------------

- ----------------------------------------------------------------------------
- ----------------------------------------------------------------------------
- ----------------------------------------------------------------------------
- -12-0-0-12-0-0-12-0-0-12-0-0-15-0-14-0-12-0-0-12-0-0-12-0-0-12-0-0-8-0-10-0-
- ----------------------------------------------------------------------------
- ----------------------------------------------------------------------------

- ---------------------------------------------------------------------------------------
- ---------------------------------------------------------------------------------------
- ---------------------------------------14----------------------12----------------------
- -12-0-0-12-0-0-12-0-0-12-0-0-15-0-14-0----12-14-15-14-12-14-15----10-12-14-12-10-12-14-
- ---------------------------------------------------------------------------------------
- ---------------------------------------------------------------------------------------

- ----------------------------------------------------------------------------
- ----------------------------------------------------------------------------
- ----------------------------------------------------------------------------
- -12-0-0-12-0-0-12-0-0-12-0-0-15-0-14-0-12-0-0-12-0-0-12-0-0-12-0-0-8-0-10-0-
- ----------------------------------------------------------------------------
- ----------------------------------------------------------------------------

- ---------------------------------------------------------------------------------------
- ---------------------------------------------------------------------------------------
- ---------------------------------------14----------------------12----------------------
- -12-0-0-12-0-0-12-0-0-12-0-0-15-0-14-0----12-14-15-14-12-14-15----10-12-14-12-10-12-14-
- ---------------------------------------------------------------------------------------
- ---------------------------------------------------------------------------------------


- ----------------------------------------------------------------------------
- ----------------------------------------------------------------------------
- ----------------------------------------------------------------------------
- -12-0-0-12-0-0-12-0-0-12-0-0-15-0-14-0-12-0-0-12-0-0-12-0-0-12-0-0-8-0-10-0-
- ----------------------------------------------------------------------------
- ----------------------------------------------------------------------------

- ---------------------------------------13-------------------------12-12h13p12-------------------
- ------------------------------------------13----------------13h15-------------13----------------
- ---------------------------------------------14----------14----------------------12-------------
- -12-0-0-12-0-0-12-0-0-12-0-0-15-0-14-0----------15p14h15----------------------------14----12\---
- ---------------------------------------------------------------------------------------15-------
- ------------------------------------------------------------------------------------------------

[Riff 1b] - [00:13] - [00:28] - [x2]
- -----------------------------------------------------------------
- -----------------------------------------------------------------
- -----------------------------------------------------------------
- -----------------------------------------------------------------
- -0-0-0-0-0-----------------------------------0-0-0-0-0-0-0-0-0-0-
- -0-0-0-0-0-----------------------------------0-0-0-0-0-0-0-0-0-0-
PM ...............................................................

- -------------------------------------------------------------------------
- -------------------------------------------------------------------------
- -------------------------------------------------------------------------
- ---------------------------------3-3-3-3-3-3-3-3/10-10-10-10-10-10-10-10-
- -0-0-0-0-0-----------------------3-3-3-3-3-3-3-3/10-10-10-10-10-10-10-10-
- -0-0-0-0-0-----------------------3-3-3-3-3-3-3-3/10-10-10-10-10-10-10-10-

[Riff 1c] - [00:28] - [00:42] - [x2]
- -----------------------------------------------------------------
- -----------------------------------------------------------------
- -----------------------------------------------------------------
- -----------------------------------------------------------------
- -0-0-0-0-0-0-0-0-0-0-0-0-8p0-7p0-0-0-0-0-0-0-0-0-0-0-0-0-1p0-3p0-
- -0-0-0-0-0-0-0-0-0-0-0-0---------0-0-0-0-0-0-0-0-0-0-0-0---------
PM .......................         .......................

- -------------------------------------------------------------------------
- -------------------------------------------------------------------------
- -------------------------------------------------------------------------
- ---------------------------------3-3-3-3-3-3-3-3/10-10-10-10-10-10-10-10-
- -0-0-0-0-0-0-0-0-0-0-0-0-8p0-7p0-3-3-3-3-3-3-3-3/10-10-10-10-10-10-10-10-
- -0-0-0-0-0-0-0-0-0-0-0-0---------3-3-3-3-3-3-3-3/10-10-10-10-10-10-10-10-
PM .......................


[Riff 2a, Guitar 1 & 2] - [00:42] - [00:57] - [x2]
- -----------------5h6p5-------------------------------------------------
- -----------------------6/8---------------------------------------------
- -9-------------------------7-----9-------------------------------------
- -7---------------------------8p7-7-------------------------------------
- -5---0-0-0---0-0-----------------5---0-0-0---0-0-----------------------
- -----0-0-0---0-0---------------------0-0-0---0-0-----------------------
PM     ...........                     ...........
- -----------------------------------------------------------------------
- -----------------------------------------------------------------------
- -9-------------------------------9---------------14------15------12----
- -7-------------------------------7------------------12-0----12-0----12-
- -5---0-0-0---0-0-----------------5---0-0-0---0-0-----------------------
- -----0-0-0---0-0---------------------0-0-0---0-0-----------------------
PM     ...........                     ...........


- -----------------5h6p5---------------------------------------------------
- -----------------------6/8-----------------------------------------------
- -9-------------------------7---------------------------------------------
- -7---------------------------8p7-3-3-3-3-3-3-3-3/10-------10-------10----
- -5---0-0-0---0-0-----------------3-3-3-3-3-3-3-3/10-------10-------10----
- -----0-0-0---0-0-----------------3-3-3-3-3-3-3-3/10-------10-------10----
PM     ...........
- -------------------------------------------------------------------------
- -------------------------------------------------------------------------
- -9-----------------------------------------------------------------------
- -7-------------------------------3-3-3-3-3-3-3-3/10-------10-------10----
- -5---0-0-0---0-0-----------------3-3-3-3-3-3-3-3/10-------10-------10----
- -----0-0-0---0-0-----------------3-3-3-3-3-3-3-3/10-------10-------10----
PM     ...........


[Riff 2b] - [00:48] - [00:50] & [00:55] - [00:57]
- -8h10p8------------/12---13----15--
- -------10/11-----------------------
- ------------10---------------------
- --------------12p10----------------
- -----------------------------------
- -----------------------------------
-
- -5h6p5-------------/8----10----12--
- -------6/8-------------------------
- -----------7-----------------------
- --------------8p7------------------
- -----------------------------------
- -----------------------------------


[Riff 3a] - [00:57] - [01:03] - [x1.5]
- -------------------------------------------------------------------------------------------------
- -------------------------------------------------------------------------------------------------
- -15-------15-------15-------15-------15----------18-------18-------17-------17-------17----------
- ----14-------14-------14-------14-------14----14----14-------14-------14-------14-------14----14-
- -------12-------12-------12-------12-------12----------12-------12-------12-------12-------12----
- -------------------------------------------------------------------------------------------------

[Riff 3b] - [00:57] - [01:05]
- -----------------------------------------------------------------
- -----------------------------------------------------------------
- -----------------------------------------------------------------
- -0~------------------------------5~--------------5---------------
- -0~------------------------------5~--------------5---------------
- -0~------------------------------5~--------------5---------------

[Riff 2b] - [01:03] - [01:05]

[Riff 4a] - [01:05] - [01:34]
- -18-18-18-17-17-17-17-17-17-17-17-17-12h13p12------------18-18-18-17-17-17-------------------------------
- ---------------------------------------------13/15-------------------------15-15-15-15-15-15-15-15-17-18-
- --------------------------------------------------14-----------------------------------------------------
- ----------------------------------------------------15p14------------------------------------------------
- ---------------------------------------------------------------------------------------------------------
- ---------------------------------------------------------------------------------------------------------

- -18-18-18-17-17-17-17-17-17-17-17-17-12h13p12------------------------------------------------------------
- ---------------------------------------------13/15-------18-18-18-17-17-17-13-13-13-13-13-13-13----------
- --------------------------------------------------14-----------------------------------------------14-15-
- ----------------------------------------------------15p14---------------------------------------17-------
- ---------------------------------------------------------------------------------------------------------
- ---------------------------------------------------------------------------------------------------------

- -18-18-18-17-17-17-17-17-17-17-17-17-12h13p12------------18-18-18-17-17-17-------------------------------
- ---------------------------------------------13/15-------------------------15-15-15-15-15-15-15-15-17-18-
- --------------------------------------------------14-----------------------------------------------------
- ----------------------------------------------------15p14------------------------------------------------
- ---------------------------------------------------------------------------------------------------------
- ---------------------------------------------------------------------------------------------------------

- ---------------------------------------------------------------------------------------------------
- -15-15-15-15-15-15-15-15-15-15-15-15-15-18-18-18-18-17-17-17-17-17-17-17-17-17-17-17-17-17b17hb17b-
- ---------------------------------------------------------------------------------------------------
- ---------------------------------------------------------------------------------------------------
- ---------------------------------------------------------------------------------------------------
- ---------------------------------------------------------------------------------------------------

[Riff 4b] - [01:05] - [01:34] - [x2]
- -----------------------------------------------------------------
- -----------------------------------------------------------------
- -----------------------------------------------------------------
- -8---8---8---8---8---8---8---8---8---8---8---8---8---8---8---8---
- -8---8---8---8---8---8---8---8---8---8---8---8---8---8---8---8---
- -8---8---8---8---8---8---8---8---8---8---8---8---8---8---8---8---

- -----------------------------------------------------------------
- -----------------------------------------------------------------
- -----------------------------------------------------------------
- -------------/3\-----------------------------/3\-----------------
- -0---0---0---0000----0-0-0-0-0-0-0---0---0---0000----0-0-0-0-0-0-
- -0---0---0---0000----0-0-0-0-0-0-0---0---0---0000----0-0-0-0-0-0-

- -----------------------------------------------------------------
- -----------------------------------------------------------------
- -----------------------------------------------------------------
- -8---8---8---8---8---8---8---8---8---8---8---8---8---8---8---8---
- -8---8---8---8---8---8---8---8---8---8---8---8---8---8---8---8---
- -8---8---8---8---8---8---8---8---8---8---8---8---8---8---8---8---

- -----------------------------------------------------------------
- -----------------------------------------------------------------
- -----------------------------------------------------------------
- -12--12--12--12--12--12--12--12--12--12--12--12--12--12--12--12--
- -10--10--10--10--10--10--10--10--10--10--10--10--10--10--10--10--
- -10--10--10--10--10--10--10--10--10--10--10--10--10--10--10--10--


[Riff 5, Guitar 1 & 2] - [01:34] - [01:42]
- -----------------5h6p5-------------------------------------------------
- -----------------------6/8---------------------------------------------
- -9-------------------------7-----9---------------14------15------12----
- -7---------------------------8p7-7------------------12-0----12-0----12-
- -5---0-0-0---0-0-----------------5---0-0-0---0-0-----------------------
- -----0-0-0---0-0---------------------0-0-0---0-0-----------------------
PM     ...........                     ...........
- -----------------5h6p5-------------------------------------------------
- -----------------------6/8---------------------------------------------
- -9-------------------------7-----9---------------17------19------15----
- -7---------------------------8p7-7------------------15-0----15-0----15-
- -5---0-0-0---0-0-----------------5---0-0-0---0-0-----------------------
- -----0-0-0---0-0---------------------0-0-0---0-0-----------------------
PM     ...........                     ...........


- -----------------5h6p5---------------------------------------------------
- -----------------------6/8-----------------------------------------------
- -9-------------------------7---------------------------------------------
- -7---------------------------8p7-3-3-3-3-3-3-3-3/10-------10-------10----
- -5---0-0-0---0-0-----------------3-3-3-3-3-3-3-3/10-------10-------10----
- -----0-0-0---0-0-----------------3-3-3-3-3-3-3-3/10-------10-------10----
PM     ...........
- -----------------5h6p5---------------------------------------------------
- -----------------------6/8-----------------------------------------------
- -9-------------------------7---------------------------------------------
- -7---------------------------8p7-3-3-3-3-3-3-3-3/10-------10-------10----
- -5---0-0-0---0-0-----------------3-3-3-3-3-3-3-3/10-------10-------10----
- -----0-0-0---0-0-----------------3-3-3-3-3-3-3-3/10-------10-------10----
PM     ...........


[Riff 2b] - [01:40] - [01:42]


[Riff 6a, Guitar 1 & 2] - [01:42] - [01:56]
- -----------------------------------------------------------------------------
- -----------------------------------------------------------------------------
- -----------------------------------------------------------------------------
- -12-0-0-12-0-0-12-0-0-12-0-0-15-0-14-0-12-0-0-12-0-0-12-0-0-12-0-0-8--0-10-0-
- -----------------------------------------------------------------------------
- -----------------------------------------------------------------------------
-
- -----------------------------------------------------------------------------
- -----------------------------------------------------------------------------
- -----------------------------------------------------------------------------
- -15-0-0-15-0-0-15-0-0-15-0-0-19-0-17-0-15-0-0-15-0-0-15-0-0-15-0-0-12-0-14-0-
- -----------------------------------------------------------------------------
- -----------------------------------------------------------------------------


- ---------------------------------------------------------------------------------------
- ---------------------------------------------------------------------------------------
- ---------------------------------------14----------------------12----------------------
- -12-0-0-12-0-0-12-0-0-12-0-0-15-0-14-0----12-14-15-14-12-14-15----10-12-14-12-10-12-14-
- ---------------------------------------------------------------------------------------
- ---------------------------------------------------------------------------------------
-
- ---------------------------------------------------------------------------------------
- ---------------------------------------------------------------------------------------
- ---------------------------------------17----------------------15----------------------
- -15-0-0-15-0-0-15-0-0-15-0-0-19-0-17-0----15-17-19-17-15-17-19----14-15-17-15-14-15-17-
- ---------------------------------------------------------------------------------------
- ---------------------------------------------------------------------------------------


- -----------------------------------------------------------------------------
- -----------------------------------------------------------------------------
- -----------------------------------------------------------------------------
- -12-0-0-12-0-0-12-0-0-12-0-0-15-0-14-0-12-0-0-12-0-0-12-0-0-12-0-0-8--0-10-0-
- -----------------------------------------------------------------------------
- -----------------------------------------------------------------------------
-
- -----------------------------------------------------------------------------
- -----------------------------------------------------------------------------
- -----------------------------------------------------------------------------
- -15-0-0-15-0-0-15-0-0-15-0-0-19-0-17-0-15-0-0-15-0-0-15-0-0-15-0-0-12-0-14-0-
- -----------------------------------------------------------------------------
- -----------------------------------------------------------------------------


- --------------------------------------------13----------------------------------13----13h17-
- -----------------------------------------------13-------------------------15h17----17-------
- --------------------------------------------------14-------------14h15h17-------------------
- -12-0-0-12-0-0-12-0-0-12-0-0-15-0-14-0-12-0----------15p14h15h17----------------------------
- --------------------------------------------------------------------------------------------
- --------------------------------------------------------------------------------------------
-
- --------------------------------------------17----------------------------------17----17h20-
- -----------------------------------------------18----------------------17h18h20----20-------
- --------------------------------------------------17-------------17h19----------------------
- -15-0-0-15-0-0-15-0-0-15-0-0-19-0-17-0-15-0----------19p17h19h20----------------------------
- --------------------------------------------------------------------------------------------
- --------------------------------------------------------------------------------------------


[Riff 6b] - [01:42] - [01:56]
- -----------------------------------------------------------------
- -----------------------------------------------------------------
- -----------------------------------------------------------------
- -----------------------------------------------------------------
- -0-0-0-0-0-0-----0-0-0-0-8p0-7p0-0-0-0-0-0-0-----0-0-0-0-1p0-3p0-
- -0-0-0-0-0-0-----0-0-0-0---------0-0-0-0-0-0-----0-0-0-0---------
PM .......................         .......................

- -------------------------------------------------------------------------
- -------------------------------------------------------------------------
- -------------------------------------------------------------------------
- ---------------------------------3-3-3-3-3-3-3-3/10-10-10-10-10-10-10-10-
- -0-0-0-0-0-0-----0-0-0-0-8p0-7p0-3-3-3-3-3-3-3-3/10-10-10-10-10-10-10-10-
- -0-0-0-0-0-0-----0-0-0-0---------3-3-3-3-3-3-3-3/10-10-10-10-10-10-10-10-
PM .......................


[Riff 7] - [01:56] - [02:13]
- -----------------------------------------------------------------
- -----------------------------------------------------------------
- -----------------------------------------------------------------
- -0-------------------------------5-----------------------8-8-8-8-
- -0-------------------------0000005-----------------------8-8-8-8-
- -0-------------------------0000005-----------------------8-8-8-8-
PM                           ......

- ---------------------------------------------------------------------------------
- ---------------------------------------------------------------------------------
- ---------------------------------------------------------------------------------
- -0-------------------------------5-----------------------8-8-8-8-0---------------
- -0-------------------------0000005-----------------------8-8-8-8-0---------------
- -0-------------------------0000005-----------------------8-8-8-8-0---------------
PM                           ......

[Riff 8] - [02:13] - [02:35]
- ------------------------------------------------------------------------
- ------------------------------------------------------------------------
- ------------------------------------------------------------------------
- -----------/3\----/3\--/3\--------------------/3\----/3\--/3\-----------
- -0-0-------0000-0-0000-0000---------0-0-------0000-0-0000-0000-00000000-
- -0-0-------0000-0-0000-0000---------0-0-------0000-0-0000-0000-00000000-
PM ......................................................................

- ------------------------------------------------------------------------
- ------------------------------------------------------------------------
- ------------------------------------------------------------------------
- -----------/3\----/3\--/3\--------------------/3\----/3\--/3\--/3\------
- -0-0-------0000-0-0000-0000---------0-0-------0000-0-0000-0000-0000-----
- -0-0-------0000-0-0000-0000---------0-0-------0000-0-0000-0000-0000-----
PM ......................................................................

- ------------------------------------------------------------------------
- ------------------------------------------------------------------------
- ------------------------------------------------------------------------
- -----------/3\----/3\-------------------------/3\----/3\--/3\-----------
- -0-0-------0000-0-0000--------------0-0-------0000-0-0000-0000-00000000-
- -0-0-------0000-0-0000--------------0-0-------0000-0-0000-0000-00000000-
PM ......................................................................

[Riff 3a] - [01:56] - [02:28]

[Riff 9a] - [02:35] - [03:05] - [x2]
   T  L    L  T     L     T  L    L  T  L L     T  L    L  T     L     T  L  T  L  T  L  T  L
- ---------------------------------------------------------------------------------------------
- ---------------------------------------------------------------------------------------------
- ----10p9-------------------10p9-------9----------10p9----------------------------17----------
- ---------10-------14h15---------10-15---10h12---------10-------14h15----15----15----15----15-
- -17---------17p12-------17--------------------17---------17p12-------19----19----------19----
- ---------------------------------------------------------------------------------------------

   T  L    L  T     L     T  L    L  T  L L     T  L    L  T     L     T  L  T  L  T  L  T  L
- ---------------------------------------------------------------------------------------------
- ---------------------------------------------------------------------------------------------
- ----10p9-------------------10p9-------9----------10p9----------------------------17----------
- ---------10-------14h15---------10-15---10h12---------10-------14h15----15----15----15----15-
- -17---------17p12-------17--------------------17---------17p12-------19----19----------19----
- ---------------------------------------------------------------------------------------------

   T  L    L  T     L     T  L    L  T  L L     T  L    L  T     L     T  L  T  L  T  L  T  L
- ---------------------------------------------------------------------------------------------
- ---------------------------------------------------------------------------------------------
- ----10p9-------------------10p9-------9----------10p9----------------------------17----------
- ---------10-------14h15---------10-15---10h12---------10-------14h15----15----15----15----15-
- -17---------17p12-------17--------------------17---------17p12-------19----19----------19----
- ---------------------------------------------------------------------------------------------

   T  L    L  T     L     T  L    L  T  L L     T  L    L  T     L     T        L        L
- ---------------------------------------------------------------------------------------------
- ---------------------------------------------------------------------------------------17----
- ----10p9-------------------10p9-------9----------10p9-------------------------14-------------
- ---------10-------14h15---------10-15---10h12---------10-------14h15-------------------------
- -17---------17p12-------17--------------------17---------17p12-------17----------------------
- ---------------------------------------------------------------------------------------------

[Riff 9b] - [02:35] - [03:05]
- -----------------------------------------------------------------
- -----------------------------------------------------------------
- -----------------------------------------------------------------
- -8---8---8---8---8---8---8---8---8---8---8---8---8---8---8---8---
- -8---8---8---8---8---8---8---8---8---8---8---8---8---8---8---8---
- -8---8---8---8---8---8---8---8---8---8---8---8---8---8---8---8---

- -----------------------------------------------------------------
- -----------------------------------------------------------------
- -----------------------------------------------------------------
- -0---0---0---0---0---0---0---0---0---0---0---0---0---0---0---0---
- -0---0---0---0---0---0---0---0---0---0---0---0---0---0---0---0---
- -0---0---0---0---0---0---0---0---0---0---0---0---0---0---0---0---

- -----------------------------------------------------------------
- -----------------------------------------------------------------
- -----------------------------------------------------------------
- -8---8---8---8---8---8---8---8---8---8---8---8---8---8---8---8---
- -8---8---8---8---8---8---8---8---8---8---8---8---8---8---8---8---
- -8---8---8---8---8---8---8---8---8---8---8---8---8---8---8---8---

- -----------------------------------------------------------------
- -----------------------------------------------------------------
- -----------------------------------------------------------------
- -12--12--12--12--12--12--12--12--12--12--12--12--12--12--12--12--
- -10--10--10--10--10--10--10--10--10--10--10--10--10--10--10--10--
- -10--10--10--10--10--10--10--10--10--10--10--10--10--10--10--10--

- -----------------------------------------------------------------
- -----------------------------------------------------------------
- -----------------------------------------------------------------
- -8---8---8---8---8---8---8---8---8---8---8---8---8---8---8---8---
- -8---8---8---8---8---8---8---8---8---8---8---8---8---8---8---8---
- -8---8---8---8---8---8---8---8---8---8---8---8---8---8---8---8---

- -----------------------------------------------------------------
- -----------------------------------------------------------------
- -----------------------------------------------------------------
- -0---0---0---0---0---0---0---0---0---0---0---0---0---0---0---0---
- -0---0---0---0---0---0---0---0---0---0---0---0---0---0---0---0---
- -0---0---0---0---0---0---0---0---0---0---0---0---0---0---0---0---

- -----------------------------------------------------------------
- -----------------------------------------------------------------
- -----------------------------------------------------------------
- -8---8---8---8---8---8---8---8---8---8---8---8---8---8---8---8---
- -8---8---8---8---8---8---8---8---8---8---8---8---8---8---8---8---
- -8---8---8---8---8---8---8---8---8---8---8---8---8---8---8---8---

- -----------------------------------------------------------------
- -----------------------------------------------------------------
- -----------------------------------------------------------------
- -12--12--12--12--12--12--12--8---8/--10--10--10------------------
- -10--10--10--10--10--10--10--8---8/--10--10--10------------------
- -10--10--10--10--10--10--10--8---8/--10--10--10------------------

[Riff 4a] - [03:05] - [03:34]
[Riff 4b] - [03:05] - [03:34]

[Riff 10] - [03:05] - [03:34]
- -------------------------------------------------------------------20-20-20-20-20-20-20-20-20-20-
- -18-18-18-18-18-18-18-18-18-18-18-18-17-17-17-17-18-18-18-17-17-17-------------------------------
- -------------------------------------------------------------------------------------------------
- -------------------------------------------------------------------------------------------------
- -------------------------------------------------------------------------------------------------
- -------------------------------------------------------------------------------------------------

- -------------------------------------------------------------------20-20-20-20-20-20-17-17-17-17-
- -18-18-18-18-18-18-18-18-18-18-18-18-17-17-17-17-18-18-18-17-17-17-------------------------------
- -------------------------------------------------------------------------------------------------
- -------------------------------------------------------------------------------------------------
- -------------------------------------------------------------------------------------------------
- -------------------------------------------------------------------------------------------------

- ----------------------------------------------------------------------------------------20-20-20-
- -18-18-18-18-18-18-18-18-18-18-18-18-17-17-17-17-18-18-18-17-17-17-------------------------------
- -------------------------------------------------------------------19-19-19-19-19-19-19----------
- -------------------------------------------------------------------------------------------------
- -------------------------------------------------------------------------------------------------
- -------------------------------------------------------------------------------------------------

- -------------------------------------------------------------------------------------20-20-20-20-
- -18-18-18-18-18-18-18-18-18-18-18-18-17-17-17-17-17-17-17-17-17-17-17-17-17-17-17-17-------------
- -------------------------------------------------------------------------------------------------
- -------------------------------------------------------------------------------------------------
- -------------------------------------------------------------------------------------------------
- -------------------------------------------------------------------------------------------------


[Riff 11a, Guitar 1 & 2] - [03:34] - [03:45]
- -----------------5h6p5-------------------------------------------------
- -----------------------6/8---------------------------------------------
- -9-------------------------7-----9---------------14------15------12----
- -7---------------------------8p7-7------------------12-0----12-0----12-
- -5---0-0-0---0-0-----------------5---0-0-0---0-0-----------------------
- -----0-0-0---0-0---------------------0-0-0---0-0-----------------------
PM     ...........                     ...........
- -----------------5h6p5-------------------------------------------------
- -----------------------6/8---------------------------------------------
- -9-------------------------7-----9---------------17------19------15----
- -7---------------------------8p7-7------------------15-0----15-0----15-
- -5---0-0-0---0-0-----------------5---0-0-0---0-0-----------------------
- -----0-0-0---0-0---------------------0-0-0---0-0-----------------------
PM     ...........                     ...........


- -----------------5h6p5---------------------------------------------------
- -----------------------6/8-----------------------------------------------
- -9-------------------------7---------------------------------------------
- -7---------------------------8p7-3-3-3-3-3-3-3-3/10-------10-------10----
- -5---0-0-0---0-0-----------------3-3-3-3-3-3-3-3/10-------10-------10----
- -----0-0-0---0-0-----------------3-3-3-3-3-3-3-3/10-------10-------10----
PM     ...........
- -----------------5h6p5---------------------------------------------------
- -----------------------6/8-----------------------------------------------
- -9-------------------------7---------------------------------------------
- -7---------------------------8p7-3-3-3-3-3-3-3-3/10-------10-------10----
- -5---0-0-0---0-0-----------------3-3-3-3-3-3-3-3/10-------10-------10----
- -----0-0-0---0-0-----------------3-3-3-3-3-3-3-3/10-------10-------10----
PM     ...........


- ----------------------------------------------
- ----------------------------------------------
- ----------------------------------------------
- -3-3-3-3-3-3-3-3/10-------10-------10----12\--
- -3-3-3-3-3-3-3-3/10-------10-------10----12\--
- -3-3-3-3-3-3-3-3/10-------10-------10----12\--
-
- ----------------------------------------------
- ----------------------------------------------
- ----------------------------------------------
- -3-3-3-3-3-3-3-3/10-------10-------10----12\--
- -3-3-3-3-3-3-3-3/10-------10-------10----12\--
- -3-3-3-3-3-3-3-3/10-------10-------10----12\--


[Riff 11b] - [03:40] - [03:45]
- -8h10p8------------/12---13----15--8h10p8------------/15---17----18--17\--
- -------10/11-----------------------------10/11----------------------------
- ------------10--------------------------------10--------------------------
- --------------12p10-----------------------------12p10---------------------
- --------------------------------------------------------------------------
- --------------------------------------------------------------------------
-
- -5h6p5-------------/8----10----12--5h6p5-------------/12---13----15--13\--
- -------6/8-------------------------------6/8------------------------------
- -----------7---------------------------------7----------------------------
- --------------8p7-------------------------------8p7-----------------------
- --------------------------------------------------------------------------
- --------------------------------------------------------------------------

[Symbols]

PM... Palm Mute notes with (...) under them
AP... Alternate Pick notes with (...) under them
h     Hammer On
p     Pull Off
[ ]   Harmonic
/     Slide Up
\     Slide Down
x     Dead Note
b     Bend
hb    Hold Bend
pb    Pre-Bend
r     Release Bend
(x )  Play Notes x amount of times
~     Let Ring
\\\   Pick Slide Down
///   Pick Slide Up
/ 3 \ Notes are triplets (3 notes in the space of two)
w\    Whammy Bar Down
w/    Whammy Bar Up
wh    Whammy Bar Hold
T     Right Hand Tap
L     Left Hand Tap

:)

            
            
Suggest correction
Creating personal tab
Creating personal tab
You can edit any tab online and save it as your Personal.

You can edit, replace or remove any tab part or add personal notes – all changes will be seen only by you.

Personal tabs can be accessed anytime from any device, even offline.
Learn more »
Give kudos to tab author, rate the tab!
1 2 3 4 5
comments
print report bad tab
guest
You may want to rate the tab now too:
select rating
Wanna post a correction for this tab? Suggest correction