Oops, an error
Loading. Please wait.

A Heart Filled Reaction To Dissatisfaction bass

version 1
version 1

Whole song

  • I used a live concert recording and played along as best I could.
7 views 3 this week
no commentswrite comment
1 2 3 4 5
2 more votes to show rating
add to favorites
×
Save as Personal and add changes to this tab that will be seen only by you. Learn more ›
×
You can save this tab as Personal to edit and correct it or add notes. All changes will be seen only by you. Learn more »
launch autoscroll
font size
0
reset
guitar tuner
edit
Autoscroll
slow
fast
+/-
esc
set tempo
stop
About this tab version
I used a live concert recording and played along as best I could. Was this info helpful? Yes No
City of Caterpillar - A Heart-filled Reaction to Dissatisfaction
Bass Tab by greatant
Standard Tuning

~ hold
/ slide
h hammer on
p pull off


        ten              tens   ten
G|--------------------------------------------|
D|------10~--9~--7~7h9p7-1010~------9-9~---2~-|
A|--0~-0----0---0---------8-8~-8108-7-7~-3----|
E|--------------------------------------------|
                                              |  x3
G|-----------------------5-5~----5---5~----5~-|
D|------10~--12~/14-14---3-3~---3-35-----5----|
A|--0~-0----0---0-----------------------------|
E|--------------------------------------------|
       ten  twelve fourteens

                                            x4
G|--------------------------------------------|--------|
D|------------------3333532322223202----------|--------|
A|--0000222233335323--------------------------|---0~---|
E|--------------------------------------------|--------|


                              
G|--------------------------------------------|
D|--------------------------------------------|
A|--7-77-77775-55-55550-00-00008-88-8888------|
E|--------------------------------------------|
                                              |  x2
G|--------------------------------------------|
D|--------------------------------------------|
A|--0-00-----0-003323-0-00-----0-00-----------|    x1
E|------1100--------------1100-----8878-------|
        ones              ones

                                        x2, x4 (alt.end)
G|--------------------------------------------|---------|---------|
D|--------------------------------------------|---------|---------|
A|--7-77-77775-55-55550-00-00008-88-88108-----|-8-8-8-8-|---------|
E|--------------------------------------------|---------|---------|
                                      ten                 harmonic

                                             x2
G|--------------------------------------------|
D|--------------------------------------------|
A|--0-00-----0-00-----0-00-----0-00-----------|   (maybe not 100%)
E|------1100-----8877-----1100-----8877-------|
       ones              ones


G|--------------------------------------------|--------|
D|--------------------------------------------|--------|
A|--00--00--00--00--00--00--00--00------------|--00----|
E|--------------------------------------------|--------|
Suggest correction
Creating personal tab
Creating personal tab
You can edit any tab online and save it as your Personal.

You can edit, replace or remove any tab part or add personal notes – all changes will be seen only by you.

Personal tabs can be accessed anytime from any device, even offline.
Learn more »
Give kudos to tab author, rate the tab!
1 2 3 4 5
comments
print report bad tab
guest
Wanna post a correction for this tab? Suggest correction