Oops, an error
Loading. Please wait.

And Youre Wondering How A Top Floor Could Replace Heaven tab

728 views 3 this week
8 commentsread comments
1 2 3 4 5
x 3
add to favorites
×
Save as Personal and add changes to this tab that will be seen only by you. Learn more ›
×
You can save this tab as Personal to edit and correct it or add notes. All changes will be seen only by you. Learn more »
launch autoscroll
font size
0
reset
how to read this tab
guitar tuner
edit
Autoscroll
slow
fast
+/-
esc
set tempo
stop
Author
Difficulty
============And You're Wondering How a Top Floor Could Replace Heaven============

To properly play this song you're going to need another guitarist and a delay pedal (one of the guitarists used
a Guyatone digital delay, which is basically a Boss DD3)

========Part A========

==Guitar 1==

E|--------------|  |--------------|
B|--12~-12~-----|x2|--11~-11~-----|x2
G|----------14--|  |----------13--|
D|--------------|  |--------------|
A|--------------|  |--------------|
E|--------------|  |--------------|

==Guitar 2==

E|-----|  |-----|  |-----|  |-----|  |-----|  
B|-----|x8|-----|x8|-----|x8|-----|x4|-----|x4
G|--7--|  |--2--|  |--3--|  |--2--|  |--5--|  
D|--x--|  |--x--|  |--x--|  |--x--|  |--x--|  
A|--5--|  |--0--|  |--1--|  |--0--|  |--3--|  
E|-----|  |-----|  |-----|  |-----|  |-----|  
    *        *        *        *        *        

====Part B====

==Guitar 1==

E|--------------------|
B|--------------------|
G|--------------------|
D|--7-7-7--7-10--7-9--|
A|--------------------|
E|--------------------|

Occasionally hit 9th fret harmonics e.g.

E|------------------------|
B|--------------------9+--|
G|--------------------9+--|
D|--7-7-7--7-10--7-9--9+--|
A|--------------------9+--|
E|------------------------|

Be really sloppy. It doesn't matter if you hit any open strings

==Guitar 2==

E|-----|  |-----|  |-----|  |-----|  |-----|  
B|-----|x8|-----|x8|-----|x8|-----|x4|-----|x4
G|--7--|  |--2--|  |--3--|  |--2--|  |--5--|  
D|--x--|  |--x--|  |--x--|  |--x--|  |--x--|  
A|--5--|  |--0--|  |--1--|  |--0--|  |--3--|  
E|-----|  |-----|  |-----|  |-----|  |-----|  
  
====Part C====

==Guitar 1==

E|--------------------|
B|--------------------|
G|--3!3!3!-3!3!-3!3!--|
D|--x-x-x--x-x--x-x---|
A|--1!1!1!-1!1!-1!1!--|
E|--------------------|

==Guitar 2==

E|--------------------|
B|--------------------|
G|--------------------|
D|--7-7-7--7-10--7-9--|
A|--------------------|
E|--------------------|

Short pause, then:

==Guitars 1 and 2==

E|--0--|
B|--0--|x12
G|--3--|
D|--0--|
A|--1--|
E|-----|

Basically just the octave but as noisy/sloppy as possible

====Part D====

==Guitar 1==

E|------------------|
B|------------------|
G|--10b--2b--4-5-4--|
D|--x----x---x-x-x--|
A|--8b---0b--2-3-2--|
E|------------------|

==Guitar 2==

E|------------------|
B|------------------|
G|--10b--2b--7/9-9--|
D|--x----x---x-x-x--|
A|--8b---0b--5/7-7--|
E|------------------|

====Part E====

==Guitar 1==

E|---------------------------------------|
B|---------------------------------------|
G|--10br-7br-----------------------------|
D|--x----x----8-8-8-8-8-8--5-5-5--8-8-8--|
A|--8br--5br--x-x-x-x-x-x--x-x-x--x-x-x--|
E|------------6-6-6-6-6-6--3-3-3--6-6-6--|

====Part F====

==Guitar 1==

E|--------------------------------------------x-x-x-x--|
B|--------------------------------------------x-x-x-x--|
G|-8-8-8-8-8-8--10br-7br----------------------x-x-x-x--|
D|-x-x-x-x-x-x--x----x----8-8-8-8-8-8--5\\\\--x-x-x-x--|
A|-6-6-6-6-6-6--8br--5br--x-x-x-x-x-x--x------x-x-x-x--|
E|------------------------6-6-6-6-6-6--3\\\\--x-x-x-x--|

E|---------------------------------------------------|
B|---------------------------------------------------|
G|-8-8-8-8-8-8--10br-7br-----------------------------|
D|-x-x-x-x-x-x--x----x----8-8-8-8-8-8--5-5-5--8-8-8--|
A|-6-6-6-6-6-6--8br--5br--x-x-x-x-x-x--x-x-x--x-x-x--|
E|------------------------6-6-6-6-6-6--3-3-3--6-6-6--|

====Part G====

==Guitar 1==

E|-------------------------x-x-x-x--|
B|-------------------------x-x-x-x--|
G|-10-10-10--6-6-6---------x-x-x-x--|
D|-x--x--x---x-x-x--5\\\\--x-x-x-x--|
A|-8--8--8---4-4-4--x------x-x-x-x--|
E|------------------3\\\\--x-x-x-x--|

====Part H====

==Guitar 1==

E|---------------------------------------------------------|
B|---------------------------------------------------------|
G|--10p9-9--9---xx--6--6-6--xx--12--12-12--xx--9--9-9--xx--|
D|--x----x--x---xx--x--x-x--xx--x---x--x---xx--x--x-x--xx--|
A|--x----x--x---xx--x--x-x--xx--x---x--x---xx--x--x-x--xx--|
E|--10---10-10--xx--6--6-6--xx--12--12-12--xx--9--9-9--xx--|

E|-----------------------------------------------------------|
B|-----------------------------------------------------------|
G|--10p9-9--9---xx--6--6-6--xx--9--9-9-9--14-14-14-14-12-12--|
D|--x----x--x---xx--x--x-x--xx--x--x-x-x--x--x--x--x--x--x---|
A|--x----x--x---xx--x--x-x--xx--x--x-x-x--x--x--x--x--x--x---|
E|--10---10-10--xx--6--6-6--xx--9--9-9-9--12-12-12-12-12-12--|

==Guitar 2==

E|----------------------------------------------|
B|----------------------------------------------|
G|----------------------------------------------|
D|--7p5h7p5----5p3h5p3----8p7h8p7----10p8h10p8--|
A|----------------------------------------------|
E|----------------------------------------------|

THEN guitar 1 switches to:

E|---------------------------------------------------------|
B|---------------------------------------------------------|
G|--10p9-9--9---xx--6--6-6--xx--12--12-12--xx--9--9-9--xx--|
D|--x----x--x---xx--x--x-x--xx--x---x--x---xx--x--x-x--xx--|
A|--x----x--x---xx--x--x-x--xx--x---x--x---xx--x--x-x--xx--|
E|--10---10-10--xx--6--6-6--xx--12--12-12--xx--9--9-9--xx--|

E|---------------------------------------------------------|
B|---------------------------------------------------------|
G|--10p9-9--9---xx--6--6-6--xx--9--9-9-9--10bbbbbbbr--9-9--|
D|--x----x--x---xx--x--x-x--xx--x--x-x-x--x--x--x--x--x-x--|
A|--x----x--x---xx--x--x-x--xx--x--x-x-x--x--x--x--x--x-x--|
E|--10---10-10--xx--6--6-6--xx--9--9-9-9--9--9--9--9--9-9--|
                                          ^
                                          slowly bend the G string at the 10th fret as you strum

==Guitar 3==

E|--------------|    |--------------|
B|--------------|THEN|----------5+--|
G|--5+----------|    |--5+------5+--|
D|------5+------|    |------5+------|
A|----------5+--|    |--------------|
E|--------------|    |--------------|

====Part I====

==Guitar 1==

E|----------------------------------------------------------|
B|----------------------------------------------------------|
G|--10p9-9--9--9---x--6--6-6-6--x--12!12!-12!12!-9!9!-9!9!--|
D|--x----x--x--x---x--x--x-x-x--x--x--x---x--x---x-x--x-x---|
A|--x----x--x--x---x--x--x-x-x--x--x--x---x--x---x-x--x-x---|
E|--10---10-10-10--x--6--6-6-6--x--12!12!-12!12!-9!9!-9!9!--|

E|----------------------------------------------------------|
B|----------------------------------------------------------|
G|--10p9-9--9--9---x--6--6-6-6--x--9!9!-9!9!-14!14!-12!12!--|
D|--x----x--x--x---x--x--x-x-x--x--x-x--x-x--x--x---x--x----|
A|--x----x--x--x---x--x--x-x-x--x--x-x--x-x--x--x---x--x----|
E|--10---10-10-10--x--6--6-6-6--x--9!9!-9!9!-12!12!-12!12!--|

Then it switches to:

E|----------------------------------------------------------|
B|----------------------------------------------------------|
G|--10p9-9--9--9---x--6--6-6-6--x--12!12!-12!12!-9!9!-9!9!--|
D|--x----x--x--x---x--x--x-x-x--x--x--x---x--x---x-x--x-x---|
A|--x----x--x--x---x--x--x-x-x--x--x--x---x--x---x-x--x-x---|
E|--10---10-10-10--x--6--6-6-6--x--12!12!-12!12!-9!9!-9!9!--|

E|----------------------------------------------------------|
B|----------------------------------------------------------|
G|--10p9-9--9--9---x--6--6-6-6--x--9!9!-9!9!-10b!10b!-9!9!--|
D|--x----x--x--x---x--x--x-x-x--x--x-x--x-x--x---x----x-x---|
A|--x----x--x--x---x--x--x-x-x--x--x-x--x-x--x---x----x-x---|
E|--10---10-10-10--x--6--6-6-6--x--9!9!-9!9!-9!--9!---9!9!--|

==Guitar 2==

E|---------------------------|
B|---------------------------|
G|--14b--14b--15b--17b--15b--|
D|--x----x----x----x----x----|
A|--12b--12b--13b--15b--13b--|
E|---------------------------|

====Part J====

==Guitar 2==

E|-------|
B|-------|x4
G|--10b--|
D|--x----|
A|--8b---|
E|-------|

====Part K====

==Guitar 1==

E|---------|  |---------|
B|---------|x4|---------|x4
G|---------|  |---------|
D|----7----|  |----7----|
A|------5--|  |------8--|
E|--6------|  |--5------|

==Guitar 2==

E|-------------------------|
B|--11--10--11/13--11--6~--|
G|-------------------------|
D|-------------------------|
A|-------------------------|
E|-------------------------|

E|------------------------------|-------------10-----------|----------------------|
B|--18t-17t-11t-10t-11t-10t-6t--|--18t-17t-11----11-10-6t--|--11t-10t-11t-10t-6t--|
G|------------------------------|--------------------------|----------------------|
D|------------------------------|--------------------------|----------------------|
A|------------------------------|--------------------------|----------------------|
E|------------------------------|--------------------------|----------------------|

E|------------------------------------------------------|  |--------------------|------------------|
B|--18t-17t-18t-17t-11t-10t-11t-10t-11t-10t-11t-10t-6t--|x2|--6bbbbbb8rrrrrr6t--|--11-10-11-10-6~--|
G|------------------------------------------------------|  |--------------------|------------------|
D|------------------------------------------------------|  |--------------------|------------------|
A|------------------------------------------------------|  |--------------------|------------------|
E|------------------------------------------------------|  |--------------------|------------------|
                                                              ^
                                                              Slowly bend up the note as you tremolo pick,
                                                              then slowly release it 

NOTE: I haven't shown the exact number of times notes are tremolo picked. 
Use the song as a guide for the changes

============Structure============

WIP (parts are played in alphabetical order but I haven't noted the repetitions yet)

============Key============

/ - slide 
x - mute string
b - bend
~ - sustain note/let ring
h - hammer on
p - pull off
t - tremolo pick
! - staccato 
+ - natural harmonic 

============Credits============

.Song by City of Caterpillar 
.Tabbed by Patrick Johnston
.Intro chord correction by BenadDeluxe 
.Intro riff correction by Sean Frost 

            
            
Suggest correction
Creating personal tab
Creating personal tab
You can edit any tab online and save it as your Personal.

You can edit, replace or remove any tab part or add personal notes – all changes will be seen only by you.

Personal tabs can be accessed anytime from any device, even offline.
Learn more »
Give kudos to tab author, rate the tab!
1 2 3 4 5
comments
print report bad tab
8 comments total. Showing first comments.
+1 reply
BenadDeluxe 176 Sep 12, 2015 02:42 PM

Lack of accuracy. The tab was wrong in most parts. Though it had the main idea, it was almost never accurate with the fretting.

+1 reply
BenadDeluxe 176 Sep 12, 2015 02:48 PM

The first part is
B|--12-12-12--| |--12-12-12--|
G|--15-15-13--|x2|--14-14-13--|x2.
The next part is 5x8, 0x8, 1x8, 0x4, 3x4 all on the A string. That's all I have but I hate to tell you that this tab is pretty off.
But kudos for trying to make tabs for City of Caterpillar.

+1 reply
BenadDeluxe 176 Nov 22, 2015 04:58 AM

It actually seems to be nearly perfect now. I think since the chord progression was wrong before I assumed more was wrong. There seems to still be issues, but it might just be because it's a fairly noisy song.

guest
You may want to rate the tab now too:
select rating
Wanna post a correction for this tab? Suggest correction