Oops, an error
Loading. Please wait.

Not An Angel Tab

version 2
version 2

Whole song

2,671 views 1 this week
3 commentsread comments
1 2 3 4 5
excellent!
x 3
add to favorites
launch autoscroll
font size
0
reset
how to read this tab
guitar tuner
Autoscroll
slow
fast
+/-
esc
set tempo
stop
Help us to improve Ultimate-Guitar.com Take our survey!
×
Author
TLG9289 373
Artist: City Sleeps
Title: Not An Angel
Tuning: Standard

Gtr.1 - Electric
Gtr.2 - Acoustic

-Intro/Verse 1-
   Gtr.1(clean)
||-15------15------15------15-------|    |
||---18------18------18------18-----|    |
||-----17------17------17------17---|[?x]|
||-------15------15------15------15-|    |
||----------------------------------|    |
||----------------------------------|    |
| Gtr.2                                  | [6x] End w/last time
||--------------------------------------||      |----------|
||--------------------------------------||      |----------|
||--------------------------------------||      |----------|
||-555566666666666666663333--------8888-||      |-88888888-|
||-333344444444444444441111333333336666-||      |-66666666-|
||-------------------------11111111-----||      |----------|

-Chorus 1-
 Gtr.2 strumming
|----------------|
|----------------|
|-6--8-----3--8~-|
|-6--8--3--3--8~-|
|-4--6--3--1--6~-|
|-------1--------|

-Verse 2-
 Gtr.1 (dist.)
|------------------------------------|
|------------------------------------|
|-5/6-6-66-666-6-66-333----------888-| [2x]
|-5/6-6-66-666-6-66-333-3-33-333-888-|
|-3/4-4-44-444-4-44-111-3-33-333-666-|
|-----------------------1-11-111-----|
                                              End w/ last time
|--------------------------------------|      |----------|
|--------------------------------------|      |----------|
|-5555----------------3333--------8888-| [2x] |-88888888-|
|-555566666666666666663333333333338888-|      |-88888888-|
|-333344444444444444441111333333336666-|      |-66666666-|
|-----4444444444444444----11111111-----|      |----------|

-Chorus 2-
 Gtr.1 (dist.) Strumming
                       End w/first time End w/Second time
|---------------|      |--------------| |-------------------|
|---------------|      |--------------| |-------------------|
|-6--8-----3--8-| [2x] |-88888888xxxx-| |/10101010/13131313-|
|-6--8--3--3--8-|      |-88888888xxxx-| |/x-x-x-x-/x-x-x-x--|
|-4--6--3--1--6-|      |-66666666xxxx-| |/8-8-8-8-/11111111-|
|-4--6--1-------|      |--------------| |-------------------|

-Pre-Verse-
 Gtr.1 (dist.)
|---------------------|
|---------------------|
|-6666----------------|
|-6666-66666666666666-|
|-4444-66666666666666-|
|------44444444444444-|
       **************

-Verse 3-

-Chorus 3-
 Gtr.2
|----------------|
|----------------|
|-6--8-----3--8~-|
|-6--8--3--3--8~-|
|-4--6--3--1--6~-|
|-------1--------|

 Gtr.1 (dist.) strumming
                       End w/last time
|---------------|      |-------------------|
|---------------|      |-------------------|
|-6--8-----3--8-| [2x] |/10101010/13131313-|
|-6--8--3--3--8-|      |/x-x-x-x-/x-x-x-x--|
|-4--6--3--1--6-|      |/8-8-8-8-/11111111-|
|-4--6--1-------|      |-------------------|

                       End w/first time End w/last time
|---------------|      |----------|     |-------------------|
|---------------|      |----------|     |-------------------|
|-6--8-----3--8-| [2x] |-88888888-|     |/10101010/13131313-|
|-6--8--3--3--8-|      |-88888888-|     |/x-x-x-x-/x-x-x-x--|
|-4--6--3--1--6-|      |-66666666-|     |/8-8-8-8-/11111111-|
|-4--6--1-------|      |----------|     |-------------------|

-Outro-
 Gtr.1 (dist.)       Gtr.2
|------------|      |----88~-8------88~-8------88~-8---8-|
|------------|      |---9-----9----9-----9----9-----9--9-|
|-6666-------|      |-10---------10---------10-----------|
|-666644443~-|      |------------------------------------|
|-444444443~-|      |------------------------------------|
|-----22221~-|      |------------------------------------|
Suggest correction
What's this?
You can suggest a correction to this tab. Community and Mods will review your correction and vote to approve or reject it.
comments
We did not receive enough feedback on this tab! Please rate:
print report bad tab
1 2 3 4 5
3 comments total.
0 reply
leary_33 143 wrote on January 22 2009, 03:07 pm

Bout time someone did some City sleeps songs.
Its a pritty good tab man, from what I can tell...its a little hard to follow, but the sound fits
Thanks man!

0 reply
linghoejohnson9 1,248 wrote on November 3 2009, 09:18 am

this site needs more C.S tabs D: but anyways, great job man. works for me. : ] 5 stars

0 reply
XZuluSpunorX 108 wrote on December 18 2010, 12:20 am

good tab, but its really confusing to read and follow, couldve been laid out better, but it sounds ok, so 4 stars

guest
You may want to rate the tab now too:
select rating
Please do not post tabs as comments. Select "correction" instead!