Oops, an error
Loading. Please wait.

Prototype Tab

version 1
version 1

Whole song

Interactive

3,463 views 1 this week
4 commentsread comments
1 2 3 4 5
x 5
add to favorites
launch autoscroll
font size
0
reset
how to read this tab
guitar tuner
Autoscroll
slow
fast
+/-
esc
set tempo
stop
Help us to improve Ultimate-Guitar.com Take our survey!
×
Author
Hey people... since i dont have that guitar pro shit uploaded in my computer... i tried 
tab this out by ear and put it on here for others who're too lazy to do it theirselves ;)

Ah well... here goes

Track - Prototype
Artist- City Sleeps
Tabber- Alistair MacIntyre

Heres the tricky little intro bit
*You can either play 11 on the B string or 9 at this bit... sounds just as good either way

Intro:
E]-------------------------------------|------------------------------|
B]-9-11-9-8-11*-8----------------------|-----------66------------6----|
G]-----------------6-8-6-5-8-5---------|---------5----8-7---5------7--|
D]------------------------------6-8-6-5|---5-6-8----------8----------8|
A]-------------------------------------|-8--------------------88------|
E]-------------------------------------|------------------------------|

E]-------------------------------------|-------------------|
B]-9-11-9-8-11*-8----------------------|-----------66------|
G]-----------------6-8-6-5-8-5---------|---------5-------55|
D]------------------------------6-8-6-5|---5-6-8------7--55|
A]-------------------------------------|-8---------------33|
E]-------------------------------------|-------------------|

Verse 1:
I made her from pieces of stars
the ones that fell when you shot through
a sky that burned not to return
no other element will do:

E]------------------|------------------|------------------|------------|
B]------------------|------------------|------------------|------------|
G]------------------|------------------|------------------|------------|
D]6-6-6--8-8-8--1010|6-6-6--8-8-8--1010|6-6-6--8-8-8--1010|6-6-6--8-8-8|
A]6-6-6--8-8-8--1010|6-6-6--8-8-8--1010|6-6-6--8-8-8--1010|6-6-6--8-8-8|
E]4-4-4--6-6-6--8 8 |4-4-4--6-6-6--8 8 |4-4-4--6-6-6--8 8 |4-4-4--6-6-6|


E]-----------------|
B]-----------------|
G]888-12-101010-8/5|
D]-----------------|
A]666-10-8 8 8 -6-3|
E]-----------------|

Verse2:
Her soul was grown in the bathroom
Her heart is just a red balloon
I gave her lips from from wild orchids
When she came outta the coccoon

E]------------------|----------------|------------------|------------|
B]------------------|----------------|------------------|------------|
G]------------------|----------------|------------------|------------|
D]6-6-6--8-8-8--1010|6-6-6--8-8-1010-|6-6-6--8-8-8--1010|6-6-6--8-8-8|
A]6-6-6--8-8-8--1010|6-6-6--8-8-1010-|6-6-6--8-8-8--1010|6-6-6--8-8-8|
E]4-4-4--6-6-6--8 8 |4-4-4--6-6-8 8--|4-4-4--6-6-6--8 8 |4-4-4--6-6-6|

E]-----------------|
B]-----------------|
G]888-12-101010-8/5|
D]-----------------|
A]666-10-8 8 8 -6-3|
E]-----------------|

Bridge:
Not the real thing
Not the real thing
Not the re-al thi-ing

E]-----------------------|(6)   |
B]-----------------------|(-)   |
G]-----------------------|(-)   |
D]6-6-66--6-6-66--6-6-6--| 8    |
A]6-6-66--6-6-66--6-6-6--| 8 x15|
E]4-4-44--4-4-44--4-4-4--| 6    |

E]---|
B]---|
G]---|
D]888|(Palm Muted)
A]888|
E]666|

Chorus:
I can barely see the sun
Now its blue-ue
I can barely see the sun
Because she kisses like a prototype

E]--------------------------------------------------------|
B]--------------------------------------------------------|
G]--------------------------------------------8--8-8-8-8-8|
D]10-1010101010--6--6-6-6-6-6--8--8-8-8-8-8---8--8-8-8-8-8|
A]10-1010101010--6--6-6-6-6-6--8--8-8-8-8-8---6--6-6-6-6-6|
E]8 -8 8 8 8 8 --4--4-4-4-4-4--6--6-6-6-6-6---------------|

E]--------------------------------------------------|Palm |
B]--------------------------------------------------|Muted|
G]------------------------------------8--8-6--666666|66666|
D]10-1010101010--6--6-6-6-6-6--8-8--8-8--8-6--666666|66666|
A]10-1010101010--6--6-6-6-6-6--8-8--8-6--6-4--444444|44444|
E]8 -8 8 8 8 8 --4--4-4-4-4-4--6-6--6---------------|-----|

Verse3:

E]------------------|------------------|------------------|------------|
B]------------------|------------------|------------------|------------|
G]------------------|------------------|------------------|------------|
D]6-6-6--8-8-8--1010|6-6-6--8-8-8--1010|6-6-6--8-8-8--1010|6-6-6--8-8-8|
A]6-6-6--8-8-8--1010|6-6-6--8-8-8--1010|6-6-6--8-8-8--1010|6-6-6--8-8-8|
E]4-4-4--6-6-6--8 8 |4-4-4--6-6-6--8 8 |4-4-4--6-6-6--8 8 |4-4-4--6-6-6|


E]-----------------|
B]-----------------|
G]888-12-101010-8/5|
D]-----------------|
A]666-10-8 8 8 -6-3|
E]-----------------|

Verse4:

E]------------------|----------------|------------------|------------|
B]------------------|----------------|------------------|------------|
G]------------------|----------------|------------------|------------|
D]6-6-6--8-8-8--1010|6-6-6--8-8-1010-|6-6-6--8-8-8--1010|6-6-6--8-8-8|
A]6-6-6--8-8-8--1010|6-6-6--8-8-1010-|6-6-6--8-8-8--1010|6-6-6--8-8-8|
E]4-4-4--6-6-6--8 8 |4-4-4--6-6-8 8--|4-4-4--6-6-6--8 8 |4-4-4--6-6-6|

E]-----------------|
B]-----------------|
G]888-12-101010-8/5|
D]-----------------|
A]666-10-8 8 8 -6-3|
E]-----------------|

Bridge

E]-----------------------|(6)   |
B]-----------------------|(-)   |
G]-----------------------|(-)   |
D]6-6-66--6-6-66--6-6-6--| 8    |
A]6-6-66--6-6-66--6-6-6--| 8 x15|
E]4-4-44--4-4-44--4-4-4--| 6    |

E]---|
B]---|
G]---|
D]888|(Palm Muted)
A]888|
E]666|

Chorus

E]--------------------------------------------------------|
B]--------------------------------------------------------|
G]--------------------------------------------8--8-8-8-8-8|
D]10-1010101010--6--6-6-6-6-6--8--8-8-8-8-8---8--8-8-8-8-8|
A]10-1010101010--6--6-6-6-6-6--8--8-8-8-8-8---6--6-6-6-6-6|
E]8 -8 8 8 8 8 --4--4-4-4-4-4--6--6-6-6-6-6---------------|

E]-------------------------------------------|-    |-       |
B]-------------------------------------------|-    |-       |
G]------------------------------------8--8-6-|6    |5 (Let) |
D]10-1010101010--6--6-6-6-6-6--8-8--8-8--8-6-|6 x30|5 (Ring)|
A]10-1010101010--6--6-6-6-6-6--8-8--8-6--6-4-|4    |3       |
E]8 -8 8 8 8 8 --4--4-4-4-4-4--6-6--6--------|-    |-       |

Interlude:

Not too sure about quiet bit... ;|

E]-------------------------------------------------------------|Palm  |
B]-------------------------------------------------------------|Muted |
G]---------------------------------8888888888888888------------|------|Whole
D]888888888888888-3333333333333333-8888888888888888-88888888888|888888|Thing
A]888888888888888-3333333333333333-6666666666666666-88888888888|888888|Twice
E]666666666666666-1111111111111111------------------66666666666|666666|

Bridge

E]-----------------------|(6)   |
B]-----------------------|(-)   |
G]-----------------------|(-)   |
D]6-6-66--6-6-66--6-6-6--| 8    |
A]6-6-66--6-6-66--6-6-6--| 8 x15|
E]4-4-44--4-4-44--4-4-4--| 6    |

E]---|
B]---|
G]---|
D]888|(Palm Muted)
A]888|
E]666|

Slidey thing:

E]-----------------------------------------------|
B]-----------------------------------------------|
G]-----------------------------------------------|
D]-----------------------------------------------|
A]-----------------------------------------------|
E]19////////////////////////////////////////////1|

Final Chorus

E]--------------------------------------------------------|
B]--------------------------------------------------------|
G]--------------------------------------------8--8-8-8-8-8|
D]10-1010101010--6--6-6-6-6-6--8--8-8-8-8-8---8--8-8-8-8-8|
A]10-1010101010--6--6-6-6-6-6--8--8-8-8-8-8---6--6-6-6-6-6|
E]8 -8 8 8 8 8 --4--4-4-4-4-4--6--6-6-6-6-6---------------|

E]--------------------------------------------------------|Palm|
B]--------------------------------------------------------|Mute|
G]--------------------------------------------8--8-8-8-8-8|888 |
D]10-1010101010--6--6-6-6-6-6--8--8-8-8-8-8---8--8-8-8-8-8|888 |
A]10-1010101010--6--6-6-6-6-6--8--8-8-8-8-8---6--6-6-6-6-6|666 |
E]8 -8 8 8 8 8 --4--4-4-4-4-4--6--6-6-6-6-6---------------|    |

E]--------------------------------------------------------|
B]--------------------------------------------------------|
G]--------------------------------------------8--8-8-8-8-8|
D]10-1010101010--6--6-6-6-6-6--8--8-8-8-8-8---8--8-8-8-8-8|
A]10-1010101010--6--6-6-6-6-6--8--8-8-8-8-8---6--6-6-6-6-6|
E]8 -8 8 8 8 8 --4--4-4-4-4-4--6--6-6-6-6-6---------------|

E]--------------------------------------------------|Palm |
B]--------------------------------------------------|Muted|
G]------------------------------------8--8-6--666666|66666|
D]10-1010101010--6--6-6-6-6-6--8-8--8-8--8-6--666666|66666|
A]10-1010101010--6--6-6-6-6-6--8-8--8-6--6-4--444444|44444|
E]8 -8 8 8 8 8 --4--4-4-4-4-4--6-6--6---------------|-----|


E]-------------------------------------|-----------|Let |
B]-9-11-9-8-11*-8----------------------|-----------|Ring|
G]-----------------6-8-6-5-8-5---------|1010-1010-8|8   |
D]------------------------------6-8-6-5|1010-1010-8|8   |
A]-------------------------------------|8 8 -8 8 -6|6   |
E]-------------------------------------|-----------|-   |

There we go... if u want to ask anythin my msn is
alistair.macintyre@live.co.uk
soon ill be putting a video on youtube under
City Sleeps Prototype Alistair MacIntyre (Y)
Suggest correction
comments
print report bad tab
4 comments total. Showing first comments.
+1 reply
Bogardeth 188 Dec 08, 2008 08:08 PM

I'm SO glad someone else decided to Finally post one of their songs.
PLEASE do more.

0 reply
Bogardeth 188 Mar 05, 2009 08:59 AM

Though I am glad a tab has been posted. I've actually played this and you're tab's a bit off.. The intro doesn't sound right for one thing. See what you can do.

0 reply
linghoejohnson9 1,076 Oct 22, 2009 01:50 PM

yeah, great tab man. and i agree with Bogardeth, we NEED more city sleeps tabs on UG. 5 stars though : ]

guest
You may want to rate the tab now too:
select rating
Wanna post a correction for this tab? Suggest correction