Oops, an error
Loading. Please wait.

Little Ship Tab

172 views 1 this week
no commentswrite comment
1 2 3 4 5
3 more votes to show rating
add to favorites
launch autoscroll
font size
0
reset
how to read this tab
guitar tuner
Autoscroll
slow
fast
+/-
esc
set tempo
stop
Author
Difficulty
THIS IS HOW FAR I'VE GOTTEN, MORE THAN THE INTRO BUT NOT THE WHOLE SONG, HOPE YA LIKE 
PLEASE COMMENT AND RATE IF YOU CAN.

-----------------------------------------------------------|        ------|
-----------------------------------------------------------|        ------|
-----------------------------------------------------------|        ------|
-----------------------------------------------------------|        ------|
-----------------------------------------------------------|        ------|
-----------------------------------------------------------|        ---0--|
-8-7-8-10-8-7-8-7-5-7-5-4--8-7-8-10-8-7-12-10-8-10-8-7-----|X2      ---0--|
                                                                    LET RING

-----------------------------------------------------------|
-----------------------------------------------------------|
-----------------------------------------------------------|
-----------------------------------------------------------|
-----------------------------------------------------------|
-00000000-0-0-0-000000000--00000000-0-0-0-000000000--------|
PM.......................................................


-----------------------------------------------------------|
-----------------------------------------------------------|
-----------------------------------------------------------|
-----------------------------------------------------------|
-----------------------------------------88----77----------|
-00000000-0-0-0-000000000--00000000---55----44-------------|
PM.................................


-----------------------------------------------------------|
-----------------------------------------------------------|
-----------------------------------------------------------|
-----------------------------------------------------------|
-----------------------------------------------------------|
-00000000-0-0-0-000000000--00000000-0-0-0-000000000--------|X4
PM.................................................


-----------------------------------------------------------|THOSE ARE 10'S
-----------------------------------------------------------|NOT 1'S AND 0'S
-----------------------------------------------------------|
-----------------------------------------------------------|
----555777888777555---------555777888101010888777888-------|
-0-------------------0-0-0---------------------------------|

-----------------------------------------------------------|
-----------------------------------------------------------|
-----------------------------------------------------------|
-----------------------------------------------------------|
----555777888777555----------------------------------------|
-0-------------------0-0----66666666-33333333--------------|


-----------------------------------------------------------|
-----------------------------------------------------------|
-----------------------------------------------------------|
-----------------------------------------------------------|
----555777888777555--------555777888101010888777888--------|
---------------------0-0-----------------------------------|


-----------------------------------------------------------|
-----------------------------------------------------------|
-----------------------------------------------------------|
-----------------------------------------------------------|
----555777888777555----------------------------------------|
---------------------0-0-----66666666-33333333-------------|


-----------------------------------------------------------|
-----------------------------------------------------------|
-----------------------------------------------------------|
-----------------------------------------------------------|
---555777888777555--------555777888101010888777888---------|
--------------------0-0------------------------------------|

-----------------------------------------------------------|
-----------------------------------------------------------|
-----------------------------------------------------------|
-----------------------------------------------------------|
------7--5---8--7--5--7---8--5--7--3-----------------------|X2

-----------------------------------------------------------|
-----------------------------------------------------------|
-----------------------------------------------------------|
-----------------------------------------------------------|
-5--5--5--5-7-8-7--7--7--10-8-7-8--8--8--8-----888---777---|
--0--0--0--------0--0--0---------0--0--0----555---444------|X3
BOTTOM E PALM MUTED..................................


-----------------------------------------------------------|15 IS BENDED
-----------------------------------15----------------------|HALF STEP
-----------------------------------------------------------|
-----------------------------------------------------------|
-0--0-0-0--0--0-0-0--0--0-0-0--00--------------------------|
-0--0-0-0--0--0-0-0--0--0-0-0--00--------------------------|
PM  ...     ...     ... ..


-----------------------------------------------------------|
-----------------------------------------------------------|
-----------------------------------------------------------|
-----------------------------------------------------------|
-0-0-0--0000000--0-0-0--0000000--0-0-0--0000000----88--77--|
-0-0-0--0000000--0-0-0--0000000--0-0-0--0000000--55--44----|X4
PM.............................................         
Suggest correction
Give kudos to tab author, rate the tab!
1 2 3 4 5
comments
print report bad tab
guest
You may want to rate the tab now too:
select rating
Wanna post a correction for this tab? Suggest correction