Oops, an error
Loading. Please wait.

The Road Ahead Tab

version 2
version 2

Whole song

Interactive

994 views 3 this week
no commentswrite comment
1 2 3 4 5
please rate
add to favorites
launch autoscroll
font size
0
reset
how to read this tab
guitar tuner
Tab Pro tools
  • play this tab
  • loop segment
  • change instrument
  • show fretboard
  • metronome
Autoscroll
slow
fast
+/-
esc
set tempo
stop
Contributor
City To City – The Road Ahead

Intro
  B
e----------7----------|
B-------------7-------|
G-------8--------8----|
D-------------------9-|
A----9----------------|
E-7-------------------|4x

Verse 1
  B                                         F#
e----------7--------------------7--------------------2--------------------2-
B-------------7--------------------7--------------------2-------------------
G-------8--------8-----------8--------8-----------3--------3-----------3----
D-------------------9--------------------9--------------------4-------------
A----9--------------------9--------------------4--------------------4-------
E-7--------------------7--------------------2--------------------2----------

e---------|
B-2-------|
G----3----|
D-------4-|
A---------|
E---------|2x

  B                                         G#m
e----------7--------------------7--------------------4--------------------4-
B-------------7--------------------7--------------------4-------------------
G-------8--------8-----------8--------8-----------4--------4-----------4----
D-------------------9--------------------9--------------------6-------------
A----9--------------------9--------------------6--------------------6-------
E-7--------------------7--------------------4--------------------4----------
           C#m                                       F#
e-------------------4--------------------4--------------------2-------------
B-4--------------------5--------------------5--------------------2----------
G----4-----------6--------6-----------6--------6-----------3--------3-------
D-------6-----6--------------6-----6--------------6--------------------4----
A----------4--------------------4-----------------------4-------------------
E----------------------------------------------------2--------------------2-

e-------2----------|
B----------2-------|
G----3--------3----|
D----------------4-|
A-4----------------|
E------------------|Repeat verse 1

Chorus
  E                                               B
e----------------0--------------------0--------------------------7----------
B-------------m-----0--------------------0--------------------m-----7-------
G----------u-----------1-----------1--------1--------------u-----------8----
D-------r-----------------2--------------------2--------r----------------9--
A----t--------------------------2--------------------t----------------------
E-S--------------------------0--------------------S-------------------------

e----------7----------|
B-------------7-------|
G-------8--------8----|
D-------------------9-|
A----9----------------|
E-7-------------------|After that, repeat E ones, then play (with one strum): |C#m   |F#   

Verse 2
Repeat verse 1 ónes, dón’t play C#m (after G#m you play F#)

Chorus
  E                                               B
e----------------0--------------------0--------------------------7----------
B-------------m-----0--------------------0--------------------m-----7-------
G----------u-----------1-----------1--------1--------------u-----------8----
D-------r-----------------2--------------------2--------r----------------9--
A----t--------------------------2--------------------t----------------------
E-S--------------------------0--------------------S-------------------------

e----------7----------|
B-------------7-------|
G-------8--------8----|
D-------------------9-|
A----9----------------|
E-7-------------------|3x After that, play (with one strum): |C#m   |C#m    |G#m   |G#m   |D#m    |F#   

Bridge
Repeat verse 1 ónes, dón’t play F# as last

Outro
|B   (fade out)

B = 799877
F# = 244322
G#m = 466444
C#m = *46654
E = 022100
D#m = *68876
comments
We did not receive enough feedback on this tab! Please rate:
print report bad tab
1 2 3 4 5
I want to post or [tab]
guest
You may want to rate the tab now too:
select rating
Please do not post tabs as comments. Select "correction" instead!