Oops, an error
Loading. Please wait.

In Christ Alone tab

112 views 9 this week
no commentswrite comment
1 2 3 4 5
2 more votes to show rating
add to favorites
×
Save as Personal and add changes to this tab that will be seen only by you. Learn more ›
×
You can save this tab as Personal to edit and correct it or add notes. All changes will be seen only by you. Learn more »
launch autoscroll
font size
0
reset
how to read this tab
guitar tuner
edit
Autoscroll
slow
fast
+/-
esc
set tempo
stop
[Refrain]
            E      B
In Christ alone I move;
           C#m     A
In Christ alone I breathe
            E      B
In Christ alone I walk;
           C#m     A
In Christ alone I see eternity

          E        B             E        B
e|-------(12)--(7)------|-------(12)--(7)------|
b|---(12)---------(7)---|---(12)---------(7)---|
G|----------------------|----------------------|
D|----------------------|----------------------|
A|----------------------|----------------------|
E|----------------------|----------------------|

[Verse 1]
            E               B
In Christ alone my hope is found;
          A          B           E
He is my light, my strength, my song;
             E                 B
This cornerstone, this solid ground,
                  A        B            E
Firm through the fiercest drought and storm.
                C#m                   B
What heights of love, what depths of peace,
                 A                     B
When fears are stilled, and strivings cease!
          E              B
My comforter, my all in all
             A        B
Here in the love of Christ I stand.

          E        B             E        B
e|-------(12)--(7)------|-------(12)--(7)------|
b|---(12)---------(7)---|---(12)---------(7)---|
G|----------------------|----------------------|
D|----------------------|----------------------|
A|----------------------|----------------------|
E|----------------------|----------------------|

[Verse 2]
            E                  B
In Christ alone, Who took on flesh,
             A      B        E
Fullness of God in helpless babe!
              E                 B
This gift of love and righteousness,
               A        B       E
Scorned by the ones He came to save.
             C#m             B
Till on that cross as Jesus died,
              A            B
The wrath of God was satisfied;
           E              B
For ev'ry sin on Him was laid
             A         B          E
Here in the death of Christ I'll stand.

          E        B             E        B
e|-------(12)--(7)------|-------(12)--(7)------|
b|---(12)---------(7)---|---(12)---------(7)---|
G|----------------------|----------------------|
D|----------------------|----------------------|
A|----------------------|----------------------|
E|----------------------|----------------------|

[Verse 3]
              E               B
There in the ground His body lay,
              A        B         E
Light of the world by darkness slain;
               E                 B
Then bursting forth in glorious day,
             A       B      E
Up from the grave He rose again!
           C#m            B
And as He stands in victory,
                 A               B
Sin's curse has lost its grip on me;
          E             B
For I am His and He is mine
                 A        B         E
Bought with the precious blood of Christ.

(Guitar 1)
       E    B    E    B        C#m   A    E    B
e|------------------------|------------------------|
b|------------------------|------------------------|
G|------------------------|------------------------|
D|--------9\4-------9\4---|--------9\4-------9\4---|
A|---2/7-------2/7--------|---2/7-------2/7--------|
E|------------------------|------------------------|

(Guitar 2)
e|-----12---11---12---14--|-----12---11---12---14--|
b|------------------------|------------------------|
G|------------------------|------------------------|
D|------------------------|------------------------|
A|------------------------|------------------------|
E|------------------------|------------------------|

(Guitar 1)
       E    B    E    B        C#m   A    E    B
e|------------------------|------------------------|
b|------------------------|------------------------|
G|------------------------|------------------------|
D|--------9\4-------9\4---|--------9\4-------9\4---|
A|---2/7-------2/7--------|---2/7-------2/7--------|
E|------------------------|------------------------|

(Guitar 2)
e|-----12/19-----12/19----|-----12/19-----12/19----|
b|---12-----19-12-----19--|---12-----19-12-----19--|
G|------------------------|------------------------|
D|------------------------|------------------------|
A|------------------------|------------------------|
E|------------------------|------------------------|

[Verse 4]
             E                B
No guilt in life, no fear in death
             A         B       E
This is the pow'r of Christ in me;
                   E            B
From life's first cry to final breath,
          A        B    E
Jesus commands my destiny.
            C#m                 B
No pow'r of hell, no scheme of man,
          A                 B
Can ever pluck me from His hand;
          E                  B
Till He returns or calls me home
             A         B           E
Here in the pow'r of Christ I'll stand.

[Refrain]
            E      B
In Christ alone I move;
           C#m     A
In Christ alone I breathe
            E      B
In Christ alone I walk;
           C#m     A         E
In Christ alone I see eternity


************************************

| (n)  Ghost note
| \    Slide down
| /    Slide up

************************************

            
            
Suggest correction
Creating personal tab
Creating personal tab
You can edit any tab online and save it as your Personal.

You can edit, replace or remove any tab part or add personal notes – all changes will be seen only by you.

Personal tabs can be accessed anytime from any device, even offline.
Learn more »
Give kudos to tab author, rate the tab!
1 2 3 4 5
comments
print report bad tab
guest
You may want to rate the tab now too:
select rating
Wanna post a correction for this tab? Suggest correction