Oops, an error
Loading. Please wait.

River Tab

version 1
version 1

Whole song

1,290 views 3 this week
no commentswrite comment
1 2 3 4 5
please rate
add to favorites
launch autoscroll
font size
0
reset
how to read this tab
guitar tuner
Autoscroll
slow
fast
+/-
esc
set tempo
stop
Help us to improve Ultimate-Guitar.com Take our survey!
×
Author
Difficulty
novice
Intro/Verse:

e|-x-x-x-x-x------------------------------------------------------|
B|-x-x-x-x-x------------------------------------------------------|
G|-x-x-x-x-x------------------------------------------------------|
D|-x-x-x-x-x--4-4-6-6-7-7-7-7-7-7-7-7---4-4-6-6-7-7-7-7-7-7-7-7---|
A|-x-x-x-x-x------------------------------------------------------|
E|-x-x-x-x-x--7-7-7-7-7-7-7-7-7-7-7-7---7-7-7-7-7-7-7-7-7-7-7-7---|

e|---------------------------------------------------------------||
B|---------------------------------------------------------------||
G|---------------------------------------------------------------||
D|---4-4-6-6-7-7-7-7-7-7-7-7---4-4-6-6-7-7-7-7-7-7-7-7-----------||
A|---5-5-5-5-5-5-5-5-5-5-5-5---5-5-5-5-5-5-5-5-5-5-5-5-----------||
E|---------------------------------------------------------------||




Chorus:

e|---------------------------------------------------------------|
B|---------------------------------------------------------------|
G|---------------------------6-6-6-6-6-6-6-6-6-6-x---------------|
D|---4-4-4-4-4-4-4-4-4-4-x---6-6-6-6-6-6-6-6-6-6-x---------------|
A|---4-4-4-4-4-4-4-4-4-4-x---4-4-4-4-4-4-4-4-4-4-x---------------|
E|---2-2-2-2-2-2-2-2-2-2-x---------------------------------------|

e|--------------------------------------------------------------||
B|--------------------------------------------------------------||
G|---7-7-7-7-7-7-7-7-7-7-7---7-7-7-7-7-7-7-7-7-7-7--------------||
D|---7-7-7-7-7-7-7-7-7-7-7---7-7-7-7-7-7-7-7-7-7-7--------------||
A|---5-5-5-5-5-5-5-5-5-5-7---4-4-4-4-4-4-4-4-4-4-4--------------||
E|--------------------------------------------------------------||




Bridge:

*I'll just show the chords, the rhythm is up to you.
*Start playing at the end where Steven McKellar (Vocals) sings "never get out".

              P/1                       P/2
   F#m   C#m    D    C#m    C         Em    Bm
e|--2-----4-----5-----4-----3----------x-----x--||
B|--2-----5-----7-----5-----5----------x-----x--||
G|--2-----6-----7-----6-----5----------x-----4--||
D|--4-----6-----7-----6-----5----------2-----4--||
A|--4-----4-----5-----4-----3----------2-----2--||
E|--2-----4-----5-----4-----3----------0-----x--||


Verse 1
On the warm banks
Of the river of light,
Men and women gather
With all of their rights
You see those statues,
They're men of frozen will
And we're not like them, baby,
We will never be still

Chorus
Take a little dive into the river, baby,
I don't mind, I don't mind...
If we never get out
Take a little dive into the river, baby,
I don't mind if we never get out
Never get out...

Verse 2
If heaven seems far away,
Just let your spirit sway,
Just let your spirit sway,
Just let your spirit...

Chorus

Take a little dive into the river, baby,
I don't mind, I don't mind...
If we never get out
Take a little dive into the river, baby,
I don't mind if we never get out...

Bridge
P/1:
Into the river, got all this time...
P/2:
It flows through hearts of stone,
It flows in between the bone,
It has flowed since the divine exchange
And flows forever, unchanged

Chorus
Take a little dive into the river, baby,
I don't mind, I don't mind...
If we never get out
Take a little dive into the river, baby,
I don't mind if we never get out
Never get out...


*I made it all by ear so if anything is wrong, please let me know.
Suggest correction
Give kudos to tab author, rate the tab!
1 2 3 4 5
comments
print report bad tab
guest
You may want to rate the tab now too:
select rating
Please do not post tabs as comments. Select "correction" instead!