Oops, an error
Loading. Please wait.

Rome Is Falling tab

version 1
version 1

Whole song

Interactive

1,164 views 15 this week
no commentswrite comment
1 2 3 4 5
1 last vote to show rating
add to favorites
×
Save as Personal and add changes to this tab that will be seen only by you. Learn more ›
×
You can save this tab as Personal to edit and correct it or add notes. All changes will be seen only by you. Learn more »
launch autoscroll
font size
0
reset
how to read this tab
guitar tuner
edit
Autoscroll
slow
fast
+/-
esc
set tempo
stop
Author
Difficulty
-----------------------------------------------------------------
Rome is Falling - Civil War
-----------------------------------------------------------------
Tabbed by:David McMillan		
Email:Davd-Mcmillan@hotmail.com		

Tuning: Standard

Listen to the song for rhythm, palm muting and pick articulation.

Structure

Intro x2
Verse x2
Pre Chorus x1
Chorus x 2
Verse x2
Pre Chorus x1
Chorus x2
Solo x1
Chorus x6
Outro x1

Legend

| /  slide up
| \  slide down
| h  hammer-on
| p  pull-off
| ~  vibrato
| +  harmonic
| x  Mute note

Intro


e|------------|
B|------------|
G|------------|
D|-5----4-----|
A|-5----5-----|
E|-3----2-----|

Guitar 1

e|-----------------------------------|
B|-----------------------------------|                              
G|-----------------------------------|
D|-----------------------------------|
A|-2-2-2-2--2-2-2--2-2-2--222-2------|
E|-0-0-0-0--0-0-0--0-0-0--000-0------|                                   

e|-----------------------------------|
B|-----------------------------------|
G|-----------------------------------|
D|-----------------------------------|
A|-2-2-2-2--2-2-2--2-2-2--222-2------|
E|-0-0-0-0--0-0-0--0-0-0--000-0------|

e|---------------------------------------------------------------|
B|---------------------------------------------------------------|
G|---------------------------------------------------------------|
D|-5-5-5-5--5-5-5--5-5-5--555-5----------------------------------|
A|-3-3-3-3--3-3-3--3-3-3--333-3------5-----5---5-----5-----5---5-|       
E|-------------------------------3-3-3-3-3-3-3-3-2-2-2-2-2-2-2-2-|


Guitar 2

e|-----------------------------------|
B|-----------------------------------|                              
G|-----------------------------------|
D|-----------------------------------|
A|-2-2-2-2--2-2-2--2-2-2--222-2------|
E|-0-0-0-0--0-0-0--0-0-0--000-0------|                                   

e|-----------------------------------|
B|-----------------------------------|
G|-----------------------------------|
D|-----------------------------------|
A|-2-2-2-2--2-2-2--2-2-2--222-2------|
E|-0-0-0-0--0-0-0--0-0-0--000-0------|

e|---------------------------------------------------------------|
B|---------------------------------------------------------------|
G|-----------------------------------7----7---7-----7-----7---7--|
D|-5-5-5-5--5-5-5--5-5-5--555-5--5-5--5-5---5---4-4---4-4---4----|
A|-3-3-3-3--3-3-3--3-3-3--333-3----------------------------------|       
E|---------------------------------------------------------------|


Verse

Guitar 1

e|-----------------------------------------------------------------|
B|-----------------------------------------------------------------|
G|-----------------------------------------------------------------|
D|-----------------------------------------------------------------|
A|-5h7---7---------5h7---7---------5h7---7---------5h7---7---------|
E|-----0---0-0-0-0-----0---0-0-0-0-----0---0-0-0-0-----0---0-0-0-0-|

e|-----------------------------------------------------------------|
B|-----------------------------------------------------------------|
G|-------------------------------------7----7---7-----7-----7---7--|
D|-4h5---5---------4h5---5---------5-5--5-5---5---4-4---4-4---4----|
A|-----3---3-3-3-3-----3---3-3-3-3---------------------------------|
E|-----------------------------------------------------------------|

Guitar 2


e|-----------------------------------------------------------------|
B|-----------------------------------------------------------------|
G|-----------------------------------------------------------------|
D|---------------------------------4h5---5---------4h5---5---------|
A|-5h7---7---------5h7---7-----------------------------------------|
E|-----0---0-0-0-0-----0---0-0-0-0-----0---0-0-0-0-----0---0-0-0-0-|

e|-----------------------------------------------------------------|
B|-----------------------------------------------------------------|
G|-2h4---4---------2h4---4-------------7----7---7-----7-----7---7--|
D|---------------------------------5-5--5-5---5---4-4---4-4---4----|
A|-----3---3-3-3-3-----3---3-3-3-3---------------------------------|
E|-----------------------------------------------------------------|

Pre Chorus

e|---------------------0-------------------------------------------|
B|---------------------0-------------------------------------------|
G|-5---------7---------x-------------------------------------------|
D|-5---------7---------2-------------------------------------------|
A|-3---------5---------2-------------------------------------------|
E|---------------------0-------------------------------------------|

e|-----------------------------------------------------------------|
B|-----------------------------------------------------------------|
G|-5---------7---------4-------------------------------------------|
D|-5---------7---------4---------5-5-5-5-7-7-7-7-------------------|
A|-3---------5---------2---------3-3-3-3-5-5-5-5-------------------|
E|-----------------------------------------------------------------|

Chorus

Guitar 1

e|-----------------------------------|
B|-----------------------------------|                              
G|-----------------------------------|
D|-----------------------------------|
A|-2-2-2-2--2-2-2--2-2-2--222-2------|
E|-0-0-0-0--0-0-0--0-0-0--000-0------|                                   

e|-----------------------------------|
B|-----------------------------------|
G|-----------------------------------|
D|-----------------------------------|
A|-2-2-2-2--2-2-2--2-2-2--222-2------|
E|-0-0-0-0--0-0-0--0-0-0--000-0------|

e|---------------------------------------------------------------|
B|---------------------------------------------------------------|
G|---------------------------------------------------------------|
D|-5-5-5-5--5-5-5--5-5-5--555-5----------------------------------|
A|-3-3-3-3--3-3-3--3-3-3--333-3------5-----5---5-----5-----5---5-|       
E|-------------------------------3-3-3-3-3-3-3-3-2-2-2-2-2-2-2-2-|


Guitar 2

e|-----------------------------------|
B|-----------------------------------|                              
G|-----------------------------------|
D|-----------------------------------|
A|-2-2-2-2--2-2-2--2-2-2--222-2------|
E|-0-0-0-0--0-0-0--0-0-0--000-0------|                                   

e|-----------------------------------|
B|-----------------------------------|
G|-----------------------------------|
D|-----------------------------------|
A|-2-2-2-2--2-2-2--2-2-2--222-2------|
E|-0-0-0-0--0-0-0--0-0-0--000-0------|

e|---------------------------------------------------------------|
B|---------------------------------------------------------------|
G|-----------------------------------7----7---7-----7-----7---7--|
D|-5-5-5-5--5-5-5--5-5-5--555-5--5-5--5-5---5---4-4---4-4---4----|
A|-3-3-3-3--3-3-3--3-3-3--333-3----------------------------------|       
E|---------------------------------------------------------------|

Solo 

Guitar 1

e|---------------------------------------------------------------|  {
B|---------------------------------------------------------------|
G|---------9-----11-----12-----11-----9~-------------------------|
D|-----------9-9----9-9----9-9----9-9----------------------------|   
A|---------------------------------------------------------------|
E|-17\-----------------------------------------------------------|

e|---------------------------------------------------------------|
B|---------------------------------------------------------------|
G|---9-----11-----12-----11-----9~-------------------------------|
D|-----9-9----9-9----9-9----9-9----------------------------------|
A|---------------------------------------------------------------|
E|---------------------------------------------------------------|
                                                                          ---- Play twice
e|---------------------------------------------------------------|
B|---------------------------------------------------------------|
G|---9-----11-----12-----11-----9~-------------------------------|
D|-----9-9----9-9----9-9----9-9----------------------------------|
A|---------------------------------------------------------------|
E|---------------------------------------------------------------|


e|---------------------------------------------------------------|
B|---------------------------------------------------------------|
G|---8-----9-----11-----9-----8~---------------------------------|
D|-----9-9---9-9----9-9---9-9------------------------------------|
A|---------------------------------------------------------------| 
e|---------------------------------------------------------------|  }

e|---------------------------------------------------------------|
B|---------------------------------------------------------------|
G|-/9~--11-12~--12-11--12p11/9~----/9-/11-12-11-9-11-9h11p9-8~---|
D|---------------------------------------------------------------|
A|---------------------------------------------------------------|
E|---------------------------------------------------------------|

e|---------------------------------------------------------------|
B|---------------------10----------------------------------------|
G|-9-----11-----12------------12---11----------------------------|
D|---9-9----9-9----9-9----9-9----9----9--------------------------|
A|---------------------------------------------------------------|
E|---------------------------------------------------------------|

e|---------------------------------------------------------------|
B|---------------------10----------------------------------------|
G|-9-----11-----12------------12---11~---------------------------|
D|---9-9----9-9----9-9----9-9----9-------------------------------|
A|---------------------------------------------------------------|
E|---------------------------------------------------------------|

e|---------------------------------------------------------------|
B|---------------------10----------------------------------------|
G|-9-----11-----12------------12---11----9~------8~--------------|
D|---9-9----9-9----9-9----9-9----9----9--------------------------|
A|---------------------------------------------------------------|
E|---------------------------------------------------------------|

Guitar 2

e|---------------------------------------------------------------|
B|----------10-----12-----10-------------------------------------|
G|---12-9-9----9-9----9-9----9-9-12~-----------------------------|   --- Play three times
D|---------------------------------------------------------------|
A|---------------------------------------------------------------|
E|---------------------------------------------------------------|


e|---------------------------------------------------------------|
B|----------8-----10-----8---------------------------------------|
G|---11-8-8---8-8----8-8---8-8-11~-------------------------------|
D|---------------------------------------------------------------|
A|---------------------------------------------------------------|
E|---------------------------------------------------------------|

e|---------------------------------------------------------------|
B|-/8~--10-12~--12-10--12p10/8~----/8-10-/12-10-8-10-8h10p8-7~---|
G|---------------------------------------------------------------|
D|---------------------------------------------------------------|
A|---------------------------------------------------------------|
E|---------------------------------------------------------------|

e|---------------------------------------------------------------|
B|--------10----12-----13-----12---10----------------------------|
G|-12-9-9---9-9----9-9----9-9----9----9--------------------------|
D|---------------------------------------------------------------|
A|---------------------------------------------------------------|
E|---------------------------------------------------------------|

e|---------------------------------------------------------------|
B|--------10----12-----13-----12---10~---------------------------|
G|-12-9-9---9-9----9-9----9-9----9-------------------------------|
D|---------------------------------------------------------------|
A|---------------------------------------------------------------|
E|---------------------------------------------------------------|


e|---------------------------------------------------------------|
B|--------10----12-----13-----12---10----------------------------|
G|-12-9-9---9-9----9-9----9-9----9----9--12~------11~------------|
D|---------------------------------------------------------------|
A|---------------------------------------------------------------|
E|---------------------------------------------------------------|

Outro

e|---------------------------------------------------------------|
B|---------------------------------------------------------------|
G|---------------------------------------------------------------|
D|---------------------------------------------------------------|
A|-2-2-2-2--222-2------------------------------------------------|
E|-0-0-0-0--000-0------------------------------------------------|

            
            
Suggest correction
Creating personal tab
Creating personal tab
You can edit any tab online and save it as your Personal.

You can edit, replace or remove any tab part or add personal notes – all changes will be seen only by you.

Personal tabs can be accessed anytime from any device, even offline.
Learn more »
Give kudos to tab author, rate the tab!
1 2 3 4 5
comments
print report bad tab
guest
You may want to rate the tab now too:
select rating
Wanna post a correction for this tab? Suggest correction