Oops, an error
Loading. Please wait.

96 Quite Bitter Beings ukulele

version 1
version 1

Whole song

  • Ukulele tab for main riff, chords over lyrics, ukulele chords listed.
by CKY
67 views 1 this week
no commentswrite comment
1 2 3 4 5
2 more votes to show rating
add to favorites
×
Save as Personal and add changes to this tab that will be seen only by you. Learn more ›
×
You can save this tab as Personal to edit and correct it or add notes. All changes will be seen only by you. Learn more »
launch autoscroll
font size
0
reset
transpose
0
reset
simplify chords
display chords
guitar tuner
backing track
0:00
0:00
edit
Autoscroll
slow
fast
+/-
esc
set tempo
stop
Author
About this tab version
Ukulele tab for main riff, chords over lyrics, ukulele chords listed. Was this info helpful? Yes No
Strumming
There is no strumming pattern for this song yet. and get +5 IQ
CKY - 96 Quite Bitter Beings
Ukulele tab by Tor Erik Grønås
tor.erik.g1982@gmail.com

s = slide
h = hammer-on
p = pull-off
x = mute

Tab for the Ukulele Chords used in the song:

  Eb5/D#5  Ebm/D#m    C5        Db/Eb      Ebm     Ebm11
A|---6-------1--------3-----------4---------6-------4------------|
E|---6-------2--------3-----------1---------6-------4------------|
C|---3-------3--------0-----------3---------6-------6------------|
G|---3-------x--------0-----------1---------8-------8------------|

(hammerons pulloffs and slides make it varied here is all my suggestions)                    
A|-----1---------1h2p1------------s4p2----------------|
E|---2---------2-------2h1p2----2-------6p4p2-s6p2----|
C|-3------3--3---------------3------------------------|
G|----------------------------------------------------|

********************************************************************************


[Main Riff] x4


A|-----1---------1-2-1-------------4--2----------------|
E|---2---------2-------2-1-2----2-------6-4-2--6--2----|
C|-3------3--3---------------3-------------------------|
G|-----------------------------------------------------|

[Preverse]

Eb5    C5
Eb5    C5

[Verse 1]
              Eb5
With my perceptions in a mix
             C5   
Down twenty miles through the sticks
         Eb5                          C5
To the cloudy town of Hellview, Population 96
          Eb5
Excessive vacancy, well maybe
         C5
In the shadow of an eye
         Eb5
All the strangers pass right through
          C5
Where the rules just don't apply

[Main Riff] x4

    Ebm
A|-----1---------1-2-1-------------4--2----------------|
E|---2---------2-------2-1-2----2-------6-4-2--6--2----|
C|-3------3--3---------------3-------------------------|
G|-----------------------------------------------------|


[Verse 2]

       Eb5
At the fork turn left a store
              C5
But on the right stay free from sight
          Eb5
'Cause 96 quite bitter beings
         C5     
Like to stack the bodies high
         Eb5
The only way to ever leave is
      C5           
Overflooded by the storm
       Eb5
And entanglement in Hellview
             C5
Brings you fear in fifty forms
         Eb5
They've deleted all the tourists
       C5
At the bottom of the lake
        Eb5
And not one supports the cause
                C5
To leave the blood stay in the veins


[Bridge]

(listen for rythm they change time signature and stop before it transitions back to 4/4)

Ebm    Ebm11  
Ebm    Ebm11 
Ebm    Ebm11 
Ebm    Ebm11 
Ebm    Ebm11 
Ebm    Ebm11 
stop one beat with a palm mute on Ebm
Ebm    Ebm11
Ebm    Ebm11  


[Verse 3]

Db/Eb                      Eb5
Here three miles back is where we are
Db/Eb                     Eb5                   
All we ever wanted was an answer
    Db/Eb                       Eb5            
The civilized are close yet way too far
Db/Eb                     Eb5               
All we ever wanted was an answer


[Bridge]

Ebm    Ebm11  
Ebm    Ebm11 
Ebm    Ebm11 
Ebm    Ebm11 
Ebm    Ebm11 
Ebm    Ebm11 
stop one beat with a p.m. on Ebm
Ebm    Ebm11
Ebm    Ebm11  


[Verse 4]

Db/Eb                            Eb5
Footprints giving clue to where we are
Db/Eb                     Eb5     
All we ever wanted was an answer
      Db/Eb                     Eb5      
The civilized are close yet way too far
Db/Eb               Eb5
All we ever wanted


[Main Riff] x8
   Ebm
A|-----1---------1-2-1------------s---2----------------|
E|---2---------2-------2-1-2----2-------6-4-2--6--2----|
C|-3------3--3---------------3-------------------------|
G|-----------------------------------------------------|










Suggest correction
Creating personal tab
Creating personal tab
You can edit any tab online and save it as your Personal.

You can edit, replace or remove any tab part or add personal notes – all changes will be seen only by you.

Personal tabs can be accessed anytime from any device, even offline.
Learn more »
Give kudos to tab author, rate the tab!
1 2 3 4 5
comments
print report bad tab
guest
You may want to rate the tab now too:
select rating
Wanna post a correction for this tab? Suggest correction