Oops, an error
Loading. Please wait.

96 Quite Bitter Beings bass

version 4
version 4
by CKY
10,387 views 1 this week
1 commentread comment
1 2 3 4 5
x 3
add to favorites
×
Save as Personal and add changes to this tab that will be seen only by you. Learn more ›
×
You can save this tab as Personal to edit and correct it or add notes. All changes will be seen only by you. Learn more »
launch autoscroll
font size
0
reset
guitar tuner
backing track
0:00
0:00
edit
Autoscroll
slow
fast
+/-
esc
set tempo
stop
----------------------------------------------------------------------------
			  96 Quite Bitter Beings - CKY
-----------------------------------------------------------------------------

e-mail: snake_eyes_nick@hotmail.com

Tuning: BEAD(G) [If you've got a 5-string]

This is my version of the song, how I play it on my 5-string, its a heavier feel than 
other version played on the D and G strings, nothing new, just transcribed for those that 
a deeper, heavier sound to it

Main Riff:

D|--------------------------------------------------------------------------|
A|--------------------------------------------------------------------------|
E|-----6--------676----------/9-7-6---6-------------------------------------|
B|-4-7---4---4-7---762-0-7---------97--7------------------------------------|

Verse:
D|--------------------------------------------------------------------------|
A|--------------------------------------------------------------------------|
E|--------------------------------------------------------------------------|
B|-4-4-4--4-1-1-1-----------------------------------------------------------|

(Nothing too difficult here)

Fast, heavy bridge thing:

D|--------------------------------------------------------------------------|
A|--------------------------------------------------------------------------|
E|--------------------------------------------------------------------------|
B|-4-44-44-42-2-2-----------------------------------------------------------|


(All we ever wanted was an answer)
D|--------------------------------------------------------------------------|
A|--------------------------------------------------------------------------|
E|--------------------------------------------------------------------------|
B|-2--2--2--7-2-4--4--4---0--0--0--7-2-4--4--4------------------------------|


| /  slide up
| \  slide down
| h  hammer-on
| p  pull-off
| ~  vibrato
| +  harmonic
| x  Mute note
===========================================================

            
            
Suggest correction
Creating personal tab
Creating personal tab
You can edit any tab online and save it as your Personal.

You can edit, replace or remove any tab part or add personal notes – all changes will be seen only by you.

Personal tabs can be accessed anytime from any device, even offline.
Learn more »
Give kudos to tab author, rate the tab!
1 2 3 4 5
comments
print report bad tab
1 comment total.
+1 reply
Centahne 122 Apr 08, 2010 02:30 AM

Thank you so much, I need this tab so much! I'll give you head.

guest
You may want to rate the tab now too:
select rating
Wanna post a correction for this tab? Suggest correction