Oops, an error
Loading. Please wait.

96 Quite Bitter Beings tab

version 8
by CKY
45,187 views 3 this week
22 commentsread comments
1 2 3 4 5
x 31
add to favorites
×
Save as Personal and add changes to this tab that will be seen only by you. Learn more ›
×
You can save this tab as Personal to edit and correct it or add notes. All changes will be seen only by you. Learn more »
launch autoscroll
font size
0
reset
how to read this tab
guitar tuner
backing track
0:00
0:00
edit
Autoscroll
slow
fast
+/-
esc
set tempo
stop
Author
Artist: cKy
Song:96 Quite bitter beings
Album: Camp Vol 1
Tuning: Standard

Note: you cant just play the song with out pedal effects and get what you want.
People asked me why they cant get cky sound. I perfer a Danelectro Black Licorice
foot pedal. Dont need to spend 90 dollars for some piece of crap that wont work.

Intro:
1|-----------------------------------------------------------|
2|-----------------------------------------------------------|
3|-------2-----------2-3-2--------------5--3--2--0-----2-----|
4|--0--3----0---0--3-------3-2-------3--------------3----3---|
5|------------------------------3-1--------------------------|
6|-----------------------------------------------------------|

Verse:
1|------------------|
2|------------------|
3|------------------|
4|------------------|
5|--7-7-7--7-4-4-4--|
6|--5-5-5 -5-2-2-2--|

Chorus:
1|-------------------------------------------------------------|
2|-------------------------------------------------------------|
3|-------2-----------2-3-2----------------5--3--2--0-----2-----|
4|--0--3----0--0--3---------3-2------3----------------3------3-|
5|-------------------------------3-1---------------------------|
6|-------------------------------------------------------------|

Bridge
1|-----------------------|
2|-----------------------|
3|-----------------------|
4|-4-4-4-4-4---5-5-5-5-5-|
5|-5-5-5-5-5---7-7-7-7-7-|
6|-----------------------|

Interlude:
1|-------------------------------------|----------------------------------|
2|-------------------------------------|----------------------------------|
3|-------------------------------------|----------------------------------|
4|--7-7-7--5-0--------5-5-5-5-0--------|-7-7-7-5-0-9-9-9--5-5-5-5-0-9-9-9-|
5|--5-5-5------2-2-2--3-3-3----2-2-2---|-5-5-5-----7-7-7--3-3-3-----7-7-7-|
6|-------------0-0-0-----------0-0-0---|----------------------------------|

Song Form:
intro
verse
chorus
verse
Bridge
Interlude
Bridge
Interlude
Chorus

            
            
Suggest correction
Creating personal tab
Creating personal tab
You can edit any tab online and save it as your Personal.

You can edit, replace or remove any tab part or add personal notes – all changes will be seen only by you.

Personal tabs can be accessed anytime from any device, even offline.
Learn more »
comments
print report bad tab
22 comments total. Showing first comments.
0 reply
linde lover 10 Mar 23, 2004 07:00 PM

its a very good tab if you move everythimg in the intro up one string

0 reply
SkaterD2002 600 Apr 16, 2004 08:00 PM

the last comment.. thanks. it acutally does sound a lil better.. credit to you on that one..

0 reply
skwerl066 10 Apr 25, 2004 08:00 PM

great tab this is the form of the intro i use to play the song(i got it from you!!!)but the interlude should go something like this:

--0-0-0-0-0-0-0-0-0-0-0-0-0-0---------------
--0-0-0-0-0-0-0-0-0-0-0-0-0-0---------------
--0-0-0-0-0-0-0-0-0-0-0-0-0-0---------------
--9-9-9-9-9-9-9-7-7-7-7-7-7-7---------------
--7-7-7-7-7-7-7-5-5-5-5-5-5-5---------------
--0-0-0-0-0-0-0-0-0-0-0-0-0-0---------------

but great tab anyway!

guest
You may want to rate the tab now too:
select rating
Wanna post a correction for this tab? Suggest correction