Oops, an error
Loading. Please wait.

All Power To Slaves tab

version 4
version 4

Whole song

Interactive

by CKY
665 views 1 this week
no commentswrite comment
1 2 3 4 5
2 more votes to show rating
add to favorites
×
Save as Personal and add changes to this tab that will be seen only by you. Learn more ›
×
You can save this tab as Personal to edit and correct it or add notes. All changes will be seen only by you. Learn more »
launch autoscroll
font size
0
reset
how to read this tab
guitar tuner
edit
Autoscroll
slow
fast
+/-
esc
set tempo
stop
-------------------------------------------------------------------------------
                             All Power To Slaves - CKY
-------------------------------------------------------------------------------
Tabbed by: Jeff Cameron
Email: jcameron99@gmail.com

Tuning: DGCFAd

I wrote this to correct a couple
glaring mistakes I’ve been seeing
in other tabs of this song. That’s
primarily at the end of the main
verse riff.  Hope this helps and

Enjoy!

Verse 1a
d|---------------------------------------------------------------------------|
A|-------------------------------------------------------------------4-------|
F|-----------------------4-3-----------------------------3-4-----6-----------|
C|------------6------4-6-----4---4------------6------4-6-----6-4---4---------|
G|----6-4----------------------6------6-4------------------------------------|
D|--4-----7-4---4-2-----------------4-----7-4---4-2--------------------------|

d|---------------------------------------------------------------------------|
A|-------------------------------------------------------------------4-------|
F|-----------------------4-3-----------------------------3-4-----6-----------|
C|------------6------4-6-----4---4------------6------4-6-----6-4---4---------|
G|----6-4----------------------6------6-4---------2--------------------------|
D|--4-----7-4---4-2-----------------4-----7-4---4-2--------------------------|

Verse 1b
d|------------------------------------------------|
A|------------------------------------------------|
F|--------/13-11--------/15-13-11-13-11----11-----|
C|--9-9-9--------11-13------------------13--------|
G|------------------------------------------------|
D|------------------------------------------------|

d|---------------------------------------------------|
A|---------------------------------------------------|
F|-----------/13-11--------/15-13-11-13-11----11-----|
C|--11-11-11--------11-13------------------13--------|
G|---------------------------------------------------|
D|---------------------------------------------------|

d|------------------------------------------------|
A|------------------------------------------------|
F|--------/13-11--------/15-13-11-13-11----11-----|
C|--9-9-9--------11-13------------------13--------|
G|------------------------------------------------|
D|------------------------------------------------|

d|---------------------------------------------------|
A|---------------------------------------------------|
F|-----------/13-11--------/15-13-11-13-11----11-----|
C|--11-11-11--------11-13------------------13--------|
G|---------------------------------------------------|
D|---------------------------------------------------|

Verse 1a
d|---------------------------------------------------------------------------|
A|-------------------------------------------------------------------4-------|
F|-----------------------4-3-----------------------------3-4-----6-----------|
C|------------6------4-6-----4---4------------6------4-6-----6-4---4---------|
G|----6-4----------------------6------6-4------------------------------------|
D|--4-----7-4---4-2-----------------4-----7-4---4-2--------------------------|

d|---------------------------------------------------------------------------|
A|-------------------------------------------------------------------4-------|
F|-----------------------4-3-----------------------------3-4-----6-----------|
C|------------6------4-6-----4---4------------6------4-6-----6-4---4---------|
G|----6-4----------------------6------6-4------------------------------------|
D|--4-----7-4---4-2-----------------4-----7-4---4-2--------------------------|

Verse 1b
d|------------------------------------------------|
A|------------------------------------------------|
F|--------/13-11--------/15-13-11-13-11----11-----|
C|--9-9-9--------11-13------------------13--------|
G|------------------------------------------------|
D|------------------------------------------------|

d|---------------------------------------------------|
A|---------------------------------------------------|
F|-----------/13-11--------/15-13-11-13-11----11-----|
C|--11-11-11--------11-13------------------13--------|
G|---------------------------------------------------|
D|---------------------------------------------------|

d|------------------------------------------------|
A|------------------------------------------------|
F|--------/13-11--------/15-13-11-13-11----11-----|
C|--9-9-9--------11-13------------------13--------|
G|------------------------------------------------|
D|------------------------------------------------|

d|---------------------------------------------------|
A|---------------------------------------------------|
F|-----------/13-11--------/15-13-11-13-11----11-----|
C|--11-11-11--------11-13------------------13--------|
G|---------------------------------------------------|
D|---------------------------------------------------|

Verse 1c
d|---------------------------------------------|
A|---------------------------------------------|
F|---------------------------------------------|
C|--6-6-6-6-8-8-------/8-6-4-6-4---------------|
G|--4-4-4-4-6-6-9\\---/6-4-2-4-2-6-4-4-6-------|
D|-------------------------------4-2-2-4-------|
PM:                    • • • • • • • • •

Chorus
d|----------------------------------------------------|
A|----------------------------------------------------|
F|----------------------------------------------------|
C|----------------------------/8-6-4-6-4--------------|
G|--2-2-2-2-2-2-2-2-2-2-2-2---/6-4-2-4-2-6-4-4-6------|
D|--0-0-0-0-0-0-0-0-0-0-0-0--------------4-2-2-4------|
PM: • • • • • • • • • • • •    • • • • • • • • •

d|----------------------------------------------------|
A|----------------------------------------------------|
F|----------------------------------------------------|
C|----------------------------/8-6-4-6-4--------------|
G|--2-2-2-2-2-2-2-2-2-2-2-2---/6-4-2-4-2-6-4-4-6------|
D|--0-0-0-0-0-0-0-0-0-0-0-0--------------4-2-2-4------|
PM: • • • • • • • • • • • •    • • • • • • • • •

d|----------------------------------------------------|
A|----------------------------------------------------|
F|----------------------------------------------------|
C|----------------------------/8-6-4-6-4--------------|
G|--2-2-2-2-2-2-2-2-2-2-2-2---/6-4-2-4-2-6-4-4-6------|
D|--0-0-0-0-0-0-0-0-0-0-0-0--------------4-2-2-4------|
PM: • • • • • • • • • • • •    • • • • • • • • •

d|--------------------------------------|
A|--------------------------------------|
F|---------------------------/4-3-------|
C|--------------------------------6-4---|
G|--2-2-2-2-2-2-2-2-2-2-2-2-------------|
D|--0-0-0-0-0-0-0-0-0-0-0-0-------------|
PM: • • • • • • • • • • • •

Verse 2a
d|---------------------------------------------------------------------------|
A|-------------------------------------------------------------------4-------|
F|-----------------------4-3-----------------------------3-4-----6-----------|
C|------------6------4-6-----4---4------------6------4-6-----6-4---4---------|
G|----6-4----------------------6------6-4------------------------------------|
D|--4-----7-4---4-2-----------------4-----7-4---4-2--------------------------|

d|---------------------------------------------------------------------------|
A|-------------------------------------------------------------------4-------|
F|-----------------------4-3-----------------------------3-4-----6-----------|
C|------------6------4-6-----4---4------------6------4-6-----6-4---4---------|
G|----6-4----------------------6------6-4---------2--------------------------|
D|--4-----7-4---4-2-----------------4-----7-4---4-2--------------------------|

Verse 2b
d|------------------------------------------------|
A|------------------------------------------------|
F|--------/13-11--------/15-13-11-13-11----11-----|
C|--9-9-9--------11-13------------------13--------|
G|------------------------------------------------|
D|------------------------------------------------|

d|---------------------------------------------------|
A|---------------------------------------------------|
F|-----------/13-11--------/15-13-11-13-11----11-----|
C|--11-11-11--------11-13------------------13--------|
G|---------------------------------------------------|
D|---------------------------------------------------|

d|------------------------------------------------|
A|------------------------------------------------|
F|--------/13-11--------/15-13-11-13-11----11-----|
C|--9-9-9--------11-13------------------13--------|
G|------------------------------------------------|
D|------------------------------------------------|

d|---------------------------------------------------|
A|---------------------------------------------------|
F|-----------/13-11--------/15-13-11-13-11----11-----|
C|--11-11-11--------11-13------------------13--------|
G|---------------------------------------------------|
D|---------------------------------------------------|

Verse 2c
d|---------------------------------------------|
A|---------------------------------------------|
F|---------------------------------------------|
C|--6-6-6-6-8-8-------/8-6-4-6-4---------------|
G|--4-4-4-4-6-6-9\\---/6-4-2-4-2-6-4-4-6-------|
D|-------------------------------4-2-2-4-------|
PM:                    • • • • • • • • •

Chorus
d|----------------------------------------------------|
A|----------------------------------------------------|
F|----------------------------------------------------|
C|----------------------------/8-6-4-6-4--------------|
G|--2-2-2-2-2-2-2-2-2-2-2-2---/6-4-2-4-2-6-4-4-6------|
D|--0-0-0-0-0-0-0-0-0-0-0-0--------------4-2-2-4------|
PM: • • • • • • • • • • • •    • • • • • • • • •

d|----------------------------------------------------|
A|----------------------------------------------------|
F|----------------------------------------------------|
C|----------------------------/8-6-4-6-4--------------|
G|--2-2-2-2-2-2-2-2-2-2-2-2---/6-4-2-4-2-6-4-4-6------|
D|--0-0-0-0-0-0-0-0-0-0-0-0--------------4-2-2-4------|
PM: • • • • • • • • • • • •    • • • • • • • • •

d|----------------------------------------------------|
A|----------------------------------------------------|
F|----------------------------------------------------|
C|----------------------------/8-6-4-6-4--------------|
G|--2-2-2-2-2-2-2-2-2-2-2-2---/6-4-2-4-2-6-4-4-6------|
D|--0-0-0-0-0-0-0-0-0-0-0-0--------------4-2-2-4------|
PM: • • • • • • • • • • • •    • • • • • • • • •

d|--------------------------------------|
A|--------------------------------------|
F|---------------------------/4-3-------|
C|--------------------------------6-4---|
G|--2-2-2-2-2-2-2-2-2-2-2-2-------------|
D|--0-0-0-0-0-0-0-0-0-0-0-0-------------|
PM: • • • • • • • • • • • •

Solo Backing
d|---------------------------------------------------------------------------|
A|-------------------------------------------------------------------4-------|
F|-----------------------4-3-----------------------------3-4-----6-----------|
C|------------6------4-6-----4---4------------6------4-6-----6-4---4---------|
G|----6-4----------------------6------6-4------------------------------------|
D|--4-----7-4---4-2-----------------4-----7-4---4-2--------------------------|

d|------------------------------------------------|
A|------------------------------------------------|
F|--------/13-11--------/15-13-11-13-11----11-----|
C|--9-9-9--------11-13------------------13--------|
G|------------------------------------------------|
D|------------------------------------------------|

d|---------------------------------------------------|
A|---------------------------------------------------|
F|-----------/13-11--------/15-13-11-13-11----11-----|
C|--11-11-11--------11-13------------------13--------|
G|---------------------------------------------------|
D|---------------------------------------------------|

d|------------------------------------------------|
A|------------------------------------------------|
F|--------/13-11--------/15-13-11-13-11----11-----|
C|--9-9-9--------11-13------------------13--------|
G|------------------------------------------------|
D|------------------------------------------------|

d|---------------------------------------------------|
A|---------------------------------------------------|
F|-----------/13-11--------/15-13-11-13-11----11-----|
C|--11-11-11--------11-13------------------13--------|
G|---------------------------------------------------|
D|---------------------------------------------------|

Prechorus/Chorus
d|---------------------------------------------|
A|---------------------------------------------|
F|---------------------------------------------|
C|--6-6-6-6-8-8-------/8-6-4-6-4---------------|
G|--4-4-4-4-6-6-9\\---/6-4-2-4-2-6-4-4-6-------|
D|-------------------------------4-2-2-4-------|
PM:                    • • • • • • • • •

d|----------------------------------------------------|
A|----------------------------------------------------|
F|----------------------------------------------------|
C|----------------------------/8-6-4-6-4--------------|
G|--2-2-2-2-2-2-2-2-2-2-2-2---/6-4-2-4-2-6-4-4-6------|
D|--0-0-0-0-0-0-0-0-0-0-0-0--------------4-2-2-4------|
PM: • • • • • • • • • • • •    • • • • • • • • •

d|----------------------------------------------------|
A|----------------------------------------------------|
F|----------------------------------------------------|
C|----------------------------/8-6-4-6-4--------------|
G|--2-2-2-2-2-2-2-2-2-2-2-2---/6-4-2-4-2-6-4-4-6------|
D|--0-0-0-0-0-0-0-0-0-0-0-0--------------4-2-2-4------|
PM: • • • • • • • • • • • •    • • • • • • • • •

d|----------------------------------------------------|
A|----------------------------------------------------|
F|----------------------------------------------------|
C|----------------------------/8-6-4-6-4--------------|
G|--2-2-2-2-2-2-2-2-2-2-2-2---/6-4-2-4-2-6-4-4-6------|
D|--0-0-0-0-0-0-0-0-0-0-0-0--------------4-2-2-4------|
PM: • • • • • • • • • • • •    • • • • • • • • •

d|------------------------------------------|
A|------------------------------------------|
F|---------------------------/4-3-----------|
C|--------------------------------6-4--6\\--|
G|--2-2-2-2-2-2-2-2-2-2-2-2------------6\\--|
D|--0-0-0-0-0-0-0-0-0-0-0-0------------4\\--|
PM: • • • • • • • • • • • •

That does it, Cheers!

| /  slide up
| \  slide down
| h  hammer-on
| p  pull-off
| ~  vibrato
| +  harmonic
| x  Mute note
===============================================================================
Suggest correction
Creating personal tab
Creating personal tab
You can edit any tab online and save it as your Personal.

You can edit, replace or remove any tab part or add personal notes – all changes will be seen only by you.

Personal tabs can be accessed anytime from any device, even offline.
Learn more »
Give kudos to tab author, rate the tab!
1 2 3 4 5
comments
print report bad tab
guest
You may want to rate the tab now too:
select rating
Wanna post a correction for this tab? Suggest correction