Oops, an error
Loading. Please wait.

Behind The Screams tab

version 2
version 2

Whole song

Interactive

by CKY
2,532 views 3 this week
5 commentsread comments
1 2 3 4 5
x 4
add to favorites
×
Save as Personal and add changes to this tab that will be seen only by you. Learn more ›
×
You can save this tab as Personal to edit and correct it or add notes. All changes will be seen only by you. Learn more »
launch autoscroll
font size
0
reset
how to read this tab
guitar tuner
edit
Autoscroll
slow
fast
+/-
esc
set tempo
stop
Author
Difficulty
This is a really cool song and I have alot of fun playing it.I hope you will too.Enjoy!


E||--------------------10----|--------10--12--8----------|
B||--8----------10-----------|---------------------------|
G||-------0------------------|--0------------------0-----|
D||--------------------------|---------------------------|
A||--7-------7--7---7--7-----|-----7----------7-------7--|
E||--------------------------|---------------------------|


                                                                          
--8--10--7------------|--5--3h-3p-2h-2p-0-------|------2h3p2--0----2--0--|
----------------------|--------------------3----|------------------------|
----------------------|-------------------------|------------------------|
----------------------|-------------------------|------------------------|
---------6------------|--0-----------------3----|-------------0----------|
----------------------|-------------------------|------------------------|


                                                     
--3--0-------2--0--3--0--|--------------------10----|
--------3----------------|--8----------10-----------|
-------------------------|-------0------------------|
-------------------------|--------------------------|
--------3----------------|--7-------7--7---7--7-----|
-------------------------|--------------------------|


                                                                               
--------10--12--8----------|--8--10--7---------7----|--5--3h-3p-2h-2p-0-------|
---------------------------|----------------7-------|--------------------3----|
--0------------------0-----|------------------------|-------------------------|
---------------------------|------------------------|-------------------------|
-----7----------7-------7--|---------6--------------|--0-----------------3----|
---------------------------|------------------------|-------------------------|


                                                                                
------2-3-2--0----2--0--|--3--0-------2--0--3--0--||---3--0-----0--5--0--3--0--|
------------------------|--------3----------------||---------------------------|
------------------------|-------------------------||*--------------------------|
------------------------|-------------------------||*--2-----2-----------0-----|
-------------0----------|--------3----------------||---------------------------|
------------------------|-------------------------||---------------------------|


                                                                            
-----0--5--0--7--0-----0--|--8--0--12------------|--5--3h-3p-2h-2p-0-------|
--------------------------|----------------------|--------------------3----|
--------------------------|----------------------|-------------------------|
--0-----------------------|----------------------|-------------------------|
--------------3-----3-----|----------------------|--0-----------------3----|
--------------------------|--------7-------------|-------------------------|


                                                                              
------2h3p2--0----2--0--|--3--0-------2--0--3--0---||------------------------|
------------------------|--------3-----------------||---7------0--8--7--5----|
------------------------|-------------------------*||*-----------------------|
------------------------|-------------------------*||*-----------------------|
-------------0----------|--------3-----------------||------------------------|
------------------------|--------------------------||---0--------------------|


                                                                       
----------------------|---------------------|--10----7----10----12----|
--3----5----7------0--|--8--7--5------------|--10----7----10----12----|
----------------------|---------------------|-------------------------|
----------------------|---------------------|-------------------------|
----------------------|---------------------|-------------------------|
------------0---------|---------------------|--0-----0----------0-----|


                                                              
--7--------7--5----3--0--|--3--0--5-------------|-----------||
--7-----8----------------|-------------3--------|-----------||
-----9-------------------|----------------------|----------*||
-------------------------|----------------------|----------*||
--------------3----3-----|--------3-------------|-----------||
--0----------------------|-------------0--------|-----------||


                                                                             
--3--0-----0--5--0--3--0--|-----0--5--0--7--0-----0--|--8--0--12------------|
--------------------------|--------------------------|----------------------|
--------------------------|--------------------------|----------------------|
--2-----2-----------0-----|--0-----------------------|----------------------|
--------------------------|--------------3-----3-----|----------------------|
--------------------------|--------------------------|--------7-------------|


                                                                        
--0----2--0--3--0-------|--2--0--3--0--5----3--2--|--0-----------------|
-------------------3----|-------------------------|------0-------------|
------------------------|-------------------------|--------------------|
--0---------------------|--------------0----------|------1-------------|
-------------------3----|-------------------------|--------------------|
------------------------|-------------------------|--------------------|


                     
--0----------------||
-------------------||
-------------------||
-------------------||
-------------------||
--0----------------||



            
            
Suggest correction
Creating personal tab
Creating personal tab
You can edit any tab online and save it as your Personal.

You can edit, replace or remove any tab part or add personal notes – all changes will be seen only by you.

Personal tabs can be accessed anytime from any device, even offline.
Learn more »
comments
print report bad tab
5 comments total. Showing first comments.
0 reply
Jacob6293 281 Mar 07, 2006 12:52 PM

sounds exactly like deron plays it thanks dude good job. great album, great song, and great tab.

0 reply
Jacob6293 281 Mar 07, 2006 12:54 PM

hey me again. just asking you to rate my all power to slaves solo tab when you have the time. no one has rated it yet.

0 reply
rocker20 10 Nov 12, 2006 04:44 PM

i love the way this song sounds. nice

guest
You may want to rate the tab now too:
select rating
Wanna post a correction for this tab? Suggest correction