Oops, an error
Loading. Please wait.

Disengage The Stimulator bass

by CKY
495 views 1 this week
2 commentsread comments
1 2 3 4 5
2 more votes to show rating
add to favorites
×
Save as Personal and add changes to this tab that will be seen only by you. Learn more ›
×
You can save this tab as Personal to edit and correct it or add notes. All changes will be seen only by you. Learn more »
launch autoscroll
font size
0
reset
guitar tuner
edit
Autoscroll
slow
fast
+/-
esc
set tempo
stop
Difficulty
MAIN.
|-----------------------------------------------------
|-------------------------------------------2-----1---  
|-----------------------------------------2---2-----2-
|--0-0-0-0---0-0--0----0-0-0-0---0-0----0-------0-----
                                                            X2
-----------------------------------------------------|
-----------------------------------------------------|
--4-44444--2-22222-0-00000-2-22222-------------------|
-----------------------------------------------------|

OR you can play the guitar bit, which is more fun = ] 

|------------------------------------------------------|
|--------44-----44-66----------44-----44-66------------|
|--44-77-----------------44-77-------------------------|
|------------77--------------------77------------------|

CHORUS.
|---------------------------7-------7--------9---------|
|-------2-------5-4-2-----7---7---7-------9------------|
|---------5---5-------4/5-------5-----5/7--------------|
|--0--0-----7------------------------------------------|

Repeat Main
|------------------------------------------------------
|------------------------------------------2-----1-----
|----------------------------------------2---2----2----
|--0-0-0-0--0-0--0----0-0-0-0---0-0----0-------0-------

-------------------------------------------------------|
-------------------------------------------------------|
---4-44444--2-22222-0-00000-2-22222--------------------|
-------------------------------------------------------|

REPEAT CHORUS
|---------------------------7-------7--------9---------|
|-------2-------5-4-2-----7---7---7-------9------------|
|---------5---5-------4/5-------5-----5/7--------------|
|--0--0-----7------------------------------------------|

REPEAT MAIN (changes a little when the bass is on its own)
|------------------------------------------------------
|-----------------------------2----------2-------------
|---------------------------2----------2---2-----------
|--0-0-0-0--0--0----0-0-0-0-----0-0--0-------0---------

------------------------------------------------------|
------------------------------------------------------|
--4-44444--2-22222-0-00000-2-22222--------------------|
------------------------------------------------------|

OUTRO.
|------------------------------------------------------|
|------------------------------------------------------|
|--4-44444--2-22222--0-00000--2-22222--0-00000--2-22222|    X2
|------------------------------------------------------|


I promise you this is the way to do this song, usually other people
tab this a few notes up but if you listen reall carefully it sounds
like this = D 

Enjoy!

            
            
Suggest correction
Creating personal tab
Creating personal tab
You can edit any tab online and save it as your Personal.

You can edit, replace or remove any tab part or add personal notes – all changes will be seen only by you.

Personal tabs can be accessed anytime from any device, even offline.
Learn more »
Give kudos to tab author, rate the tab!
1 2 3 4 5
comments
print report bad tab
2 comments total.
0 reply
bassboy666 155 Jul 04, 2008 12:49 AM

I'm firing blindly at how the tab tag works, but...

Anyway, the chorus is more like

G|-----7-------7-------9-|
D|---4---4---4---4---6---|
A|-5-------5-------7-----|
E|-----------------------|

0 reply
ThEcOnQuIsTaDoR 10 Mar 27, 2009 11:36 AM

5 stars!!!

by the way, its simulator, not stimulator. just so you know.

guest
Wanna post a correction for this tab? Suggest correction