Oops, an error
Loading. Please wait.

Dont Hold Your Breath bass

version 2
version 2

Whole song

Interactive

by CKY
283 views 1 this week
no commentswrite comment
1 2 3 4 5
3 more votes to show rating
add to favorites
×
Save as Personal and add changes to this tab that will be seen only by you. Learn more ›
×
You can save this tab as Personal to edit and correct it or add notes. All changes will be seen only by you. Learn more »
launch autoscroll
font size
0
reset
guitar tuner
edit
Autoscroll
slow
fast
+/-
esc
set tempo
stop
Author
Difficulty
Artist: CKY
Album: An answer can be found
Song: Don't hold your breath

Tuning: whole step down (D, G, C, F)

Intro
3/4
    H.  +Q   Q  Q   H.  +Q  Q  Q  H.    H  Q    Q  E  Q  E   E  E E  E  +Q
F|-----|----------|----|---------|----|-------|------------|----------------|
C|-----|----------|----|---------|----|-------|------------|----------------|
G|-----|-----2--3-|----|----3----|----|-------|------------|-7--------------|
D|--5--|(5)-------|-1--|(1)----1-|-3--|-3--3s=|=8--8-10--8-|---10-8-10-(10)-|

    H     +Q   Q  Q    H.    +Q   Q  Q    H.    H     H      H
F|------|------------|-----|------------|-----|-----|-----|------|
C|------|------------|-----|------------|-----|-----|-----|------|
G|------|------2--3--|-----|------3-----|-----|-----|-----|------|
D|--5---|-(5)--------|-1---|-(1)-----1--|-3---|-3---|-1---|-(1)--|
   Verse
    H.  +Q  Q  Q   H.   +Q   Q  Q    H.   H  Q    Q. Q.    E  E E  Q.
F|----|---------|----|------------|----|-------|--------|-------------|
C|----|---------|----|------------|----|-------|--------|-------------|
G|----|----2--3-|----|------3-----|----|-------|--------|-7-----------|
D|-5--|(5)------|-1--|-(1)-----1--|-3--|-3--3s=|=8--10--|---10-8-10---|
          I create to destroy at hand This path i made in the sand

    H.     +Q   Q  Q    H.    +Q   Q  Q    H.
F|-------|------------|-----|------------|-----|------|------|---------|
C|-------|------------|-----|------------|-----|------|------|---------|
G|-------|------2--3--|-----|------3-----|-----|------|------|---------|
D|--5----|-(5)--------|-1---|-(1)-----1--|-3---|-3----|-1----|-(1)-----|
     And I'm off to the deepest depths To forfeit my place on this land

   H.   +Q   Q  Q   H.   +Q  Q  Q    H.    H  Q   Q.  Q.    E  E E  Q.
F|-----|----------|-----|----------|-----|-------|--------|-------------|
C|-----|----------|-----|----------|-----|-------|--------|-------------|
G|-----|-----2--3-|-----|-----3----|-----|-------|--------|-7-----------|
D|-5---|-(5)------|-1---|-(1)---1--|-3---|-3--3s=|=8--10--|---10-8-10---|
    The tide pulls you into me As one  I drift in the sea

  H.    +Q  Q  Q   H.   +Q  Q Q    H.
|-----|----------|----|----------|-----|-----|-----|------|
|-----|----------|----|----------|-----|-----|-----|------|
|-----|-----2--3-|----|-----3----|-----|-----|-----|------|
|-5---|-(5)------|-1--|-(1)---1--|-3---|-3---|-1---|-(1)--|
The feeling is free yet you'll find yourself drifting with me

 Chorus
  Q  E Q  E   Q  Q  Q    Q  E Q  E   Q  Q  Q
|-----------|----------|-----------|-----------|
|-----------|----------|-----------|-----------|
|-3--3-3--3-|-3--5--7--|-----------|----3------|
|-----------|----------|-5--5-5--5-|-5-----5---|
Don't hold your breath for long

  Q  E Q  E   Q  Q  Q    Q  E Q  E   Q  Q  Q
|-----------|----------|-----------|-----------|
|-----------|----------|-----------|-----------|
|-3--3-3--3-|-3--5--3--|-----------|----3------|
|-----------|----------|-5--5-5--5-|-5-----5---|
If the undertow's getting too strong

  Q  E Q  E   Q  Q  Q    E Q  Q.     E Q  Q.
|-----------|----------|-----------|------------|
|-----------|----------|-----------|------------|
|-----------|----------|-----------|------------|
|-1--1-1--1-|-1--1--1--|---3--3----|---4--4-----|
There's no reason for you to come along

   Interlude
  H.     +Q  Q  Q    H.   +Q   Q  Q    H.
|------|-----------|-----|------------|----|-------|-----|-------|
|------|-----------|-----|------------|----|-------|-----|-------|
|------|-----2--3--|-----|------3-----|----|-------|-----|-------|
|-5----|-(5)-------|-1---|-(1)-----1--|-3--|-(3)---|-1---|-(1)---|

  H.    +Q  Q  Q    H.    +Q   Q  Q    H.
|-----|-----------|-----|------------|----|---------|--------|
|-----|-----------|-----|------------|----|---------|--------|
|-----|-----2--3--|-----|------3-----|----|-3-------|-(3)----|
|-5---|-(5)-------|-1---|-(1)-----1--|-3--|---------|--------|

   Verse
  H.    +Q  Q  Q    H.    +Q   Q  Q    H.   H   +E  E   Q.  Q.   E E E Q.
|-----|-----------|-----|------------|-----|----------|-------|---------|
|-----|-----------|-----|------------|-----|----------|-------|-2-------|
|-----|-----2--3--|-----|------3-----|-----|----------|-3--5--|---5-3-5-|
|-5---|-(5)-------|-1---|-(1)-----1--|-3---|-3--(3)-3-|-------|---------|
The horizon is just ahead, the end of the dry lives we've led

  H.    +Q  Q  Q    H.    +Q   Q  Q    H.
|-----|-----------|-----|------------|-----|-----|-----|----|
|-----|-----------|-----|------------|-----|-----|-----|----|
|-----|-----2--3--|-----|------3-----|-----|-----|-----|-3--|
|-5---|-(5)-------|-1---|-(1)-----1--|-3---|-3---|-1---|----|
You know what I think of them you sutured my wounds when they bled

  H.    +Q  Q  Q    H.    +Q   Q  Q    H.    H   +E  E   Q. Q.   H.
|-----|-----------|-----|------------|-----|-----------|-------|-----|
|-----|-----------|-----|------------|-----|-----------|-------|-----|
|-----|-----2--3--|-----|------3-----|-----|-----------|-3--5--|-3---|
|-5---|-(5)-------|-1---|-(1)-----1--|-3---|-3---(3)-3-|-------|-----|
So whats to become of us, the answer has yet to be seen

  H.    +Q   Q  Q    H.    +H   Q   H.    +H.      H.    +H.
|-----|------------|-----|---------|-----|-------|-----|-------|
|-----|------------|-----|---------|-----|-------|-----|-------|
|-----|------2--3--|-----|---------|-----|-------|-----|-------|
|-5---|-(5)--------|-1---|-(1)--1--|-3---|-(3)---|-1---|-(1)---|
 As fate puts us side by side, you'll find yourself drifting with me

 Chorus
  Q  E Q  E   Q   Q  Q    Q  E Q  E   Q  Q  Q
|-----------|-----------|-----------|-----------|
|-----------|-----------|-----------|-----------|
|-3--3-3--3-|-3--/5--3--|-----------|----3------|
|-----------|-----------|-5--5-5--5-|-5-----5---|
Don't hold your breath for long

  Q  E Q  E   Q   Q  Q    Q  E Q  E    E E E E +Q
|-----------|-----------|-----------|----------------|
|-----------|-----------|-----------|----------------|
|-3--3-3--3-|-3--/5--3--|-----------|-/7-5-3h5-(5)---|
|-----------|-----------|-5--5-5--5-|----------------|
If the undertow's getting too strong

  Q  E Q  E   Q  Q  Q    E Q  Q.     E Q  Q.
|-----------|----------|-----------|------------|
|-----------|----------|-----------|------------|
|-----------|----------|-----------|------------|
|-1--1-1--1-|-1--1--1--|---3--3----|---4--4-----|
There's no reason for you to come along

 Interlude
 Q  E Q  E   Q  Q  Q    Q  E Q  E   Q  Q  Q  Q  E Q  E   +H.   H.   E E E Q.
|-----------|---------|-----------|---------|-----------|-----|---|---------|
|-----------|---------|-----------|---------|-----------|-----|---|-2-------|
|-----------|----2--3-|-----------|----3----|-----------|-----|---|---5-3-5-|
|-5--5-5--5-|-5-------|-1--1-1--1-|-1-----1-|-3--3-3--3-|-(3)-|-1-|---------|

  Q  E Q  E   Q  Q  Q    Q  E Q  E  +H  Q  Q  E Q  E   +H.    H.  +Q   Q  Q
|-----------|---------|-----------|-------|-----------|------|---|----------|
|-----------|---------|-----------|-------|-----------|------|---|----------|
|-----------|----2--3-|-----------|-------|-----------|------|-3-|-(3)-5--3-|
|-5--5-5--5-|-5-------|-1--1-1--1-|-(1)-1-|-3--3-3--3-|-(3)--|---|----------|

 Guitar solo
 Q E Q E   Q  Q  Q   Q  E Q  E   Q Q Q  Q E Q E   +H    Q  H   +Q   Q  Q  Q
|---------|--------|-----------|-------|---------|--------|--------|--------|
|---------|--------|-----------|-------|---------|--------|--------|--------|
|---------|----2-3-|-----------|---3---|---------|--------|--------|--------|
|-5-5-5-5-|-5------|-1--1-1--1-|-1---1-|-3-3-3-3-|-(3)--3-|-1-(1)s=|=8-10-8-|

  Q  E Q  E   Q  Q  Q    H.    Q  Q  Q   H.     H.    H.    +H.
|-----------|----------|-----|----------|-----|-----|-----|-------|
|-----------|----------|-----|----------|-----|-----|-----|-------|
|-----------|----2--3--|-----|----3-----|-----|-----|-----|-------|
|-5--5-5--5-|-5--------|-1---|-1-----1--|-3---|-3---|-1---|-(1)---|

   Chorus
    Q  E Q  E   Q   Q  Q    Q  E Q  E   +H     Q
|------------|-----------|-----------|-----------|
|o-----------|-----------|-----------|-----------|
|o-3--3-3--3-|-3--/5--3--|-----------|-----------|
|------------|-----------|-5--5-5--5-|-(5)----5--|
Don't hold your breath for long

  Q  E Q  E   Q   Q  Q    Q  E Q  E    E E E E +Q
|-----------|-----------|-----------|----------------|
|-----------|-----------|-----------|----------------|
|-3--3-3--3-|-3--/5--3--|-----------|-/7-5-3h5-(5)---|
|-----------|-----------|-5--5-5--5-|----------------|
If the undertow's getting too strong

  Q  E Q  E   Q  Q  Q    E Q  Q.     E Q  Q.
|-----------|----------|-----------|-------------|
|-----------|----------|-----------|-------------|
|-----------|----------|-----------|-------------|
|-1--1-1--1-|-1--1--1--|---3--3----|---4--4------|
Theres no reason for you to come along

 Q  E Q  E   Q   Q  Q    Q  E Q  E   +H     Q
|------------|-----------|-----------|-----------|
|o-----------|-----------|-----------|-----------|
|o-3--3-3--3-|-3--/5--3--|-----------|-----------|
|------------|-----------|-5--5-5--5-|-(5)----5--|
Hold your breath for long

  Q  E Q  E   Q   Q  Q    Q  E Q  E    E E E E +Q
|-----------|-----------|-----------|----------------|
|-----------|-----------|-----------|----------------|
|-3--3-3--3-|-3--/5--3--|-----------|-/7-5-3h5-(5)---|
|-----------|-----------|-5--5-5--5-|----------------|
If the undertow's getting too strong

  Q  E Q  E   Q  Q  Q    E Q  Q.     E Q  Q.
|-----------|----------|-----------|-------------|
|-----------|----------|-----------|-------------|
|-----------|----------|-----------|-------------|
|-1--1-1--1-|-1--1--1--|---3--3----|---4--4------|
Theres no reason for you to come along

    Q  E Q  E   Q  Q  Q    E Q  Q.     E Q  Q.
|------------|----------|-----------|------------|
|------------|----------|-----------|------------|
|------------|----------|-----------|------------|
|--1--1-1--1-|-1--1--1--|---3--3----|---4--4-----|
There's no reason for you to come along

Q  E Q  E   Q  Q  Q    E Q  Q.     E Q  Q.
|------------|----------|-----------|------------|
|------------|----------|-----------|------------|
|------------|----------|-----------|------------|
|--1--1-1--1-|-1--1--1--|---3--3----|---4--4-----|
There's no reason for you to come along

  H.        +H.        +H.        +H.
|---------|----------|----------|--------|
|---------|----------|----------|--------|
|---------|----------|----------|--------|
|-1-------|-(1)------|-(1)------|-(1)----|

Beautiful song.
Enjoi,

Alien

            
            
Suggest correction
Creating personal tab
Creating personal tab
You can edit any tab online and save it as your Personal.

You can edit, replace or remove any tab part or add personal notes – all changes will be seen only by you.

Personal tabs can be accessed anytime from any device, even offline.
Learn more »
Give kudos to tab author, rate the tab!
1 2 3 4 5
comments
print report bad tab
guest
You may want to rate the tab now too:
select rating
Wanna post a correction for this tab? Suggest correction