Oops, an error
Loading. Please wait.

Dont Hold Your Breath tab

version 2
version 2

Whole song

Interactive

by CKY
214 views 1 this week
no commentswrite comment
1 2 3 4 5
2 more votes to show rating
add to favorites
×
Save as Personal and add changes to this tab that will be seen only by you. Learn more ›
×
You can save this tab as Personal to edit and correct it or add notes. All changes will be seen only by you. Learn more »
launch autoscroll
font size
0
reset
how to read this tab
guitar tuner
edit
Autoscroll
slow
fast
+/-
esc
set tempo
stop
This is for the Ålliance!

cKy [CAMP KILL yourseLF]
------------------------
don't hold your breath (track №11 from the an Ånswer can be found)
Released by Island Records 28 june 2005
---------------------------------------
Guitar, Bass & Vocal parts by Deron Miller
Lead guitar, Bass, Vocal parts & Production by Chad I Ginsburg
Drums part by Jess Margera
--------------------------
Guitar tab by Andrew A. Terexin (Russia/Moscow) [6.s8dashes@gmail.com]
Used: Epiphone Les Paul Studio with D'Addario 12-52 jazz steel strings,
Digitech RP-155, Line 6 Toneport GX Mk2, Guitar Rig 5 Player
------------------------------------------------------------
Tuning: D Standart (D G C F A D)

1) Clean
D|----------------------------------------------------------------------------|
A|----------------------------------------------------------------------------|
F|----------------------------------------------------------------------------|
C|----------2---0------------------------------------------2---2---2p0---0-0--|
G|----3-------------3---5---5\3-----3--2---2---2-2h3p2-2-----3---3-----3------|
D|--5---5-5---5---5---5---1-----1-1------3---3-----------3--------------------|

2)
D|-------------------------------------------------------------|
A|-------------------------------------------------------------|
F|-------------------------------------------------------------|
C|----------2---0----------------------------------------------|
G|----3-------------3---5---5\3-----3--2---2---2-2h3p2-2-------|
D|--5---5-5---5---5---5---1-----1-1------3---3-----------3-1~--|

Chorus
3) Distortion
D|---------------------------------------|
A|---------------------------------------|
F|---------------------------------------|
C|--10---7---10---7---3---x-5-5-x-x-6-6--|
G|--10---7---10---7---3---x-5-5-x-x-6-6--|
D|--8----5---8----5---1---x-3-3-x-x-4-4--|

4) Clean
D|-----3-0-----7-------3---------0-------3-0-----7-------3------------------------|
A|---------------8-------3-----1-------------------8-------3----------------------|
F|----------2---------------------------------2---------------5/7v~--9-7-0-7-5-0--|
C|----------3---------------------------------3-----------------------------------|
G|--0---------------------------------0-------------------------------------------|
D|------------------3-------1-------------------------3---------------------------|

5)
D|-----3-0-----7-------3---------0-------3-0-----7-------3-----------|
A|---------------8-------3-----1-------------------8-------3--3/5v~--|
F|----------2---------------------------------2----------------------|
C|----------3---------------------------------3----------------------|
G|--0---------------------------------0------------------------------|
D|------------------3-------1-------------------------3--------------|

Solo
6) Distortion
D|-------------------------------------------------------------------------/15h17-17b↑↓-13\12-12/13-15v~--|
A|-------------------------------------------------7h8-10v~-----/8v~--------------------------------------|
F|------------7-9\7-----------------------------------------9v~------7v~\---------------------------------|
C|--/7v~-9-10-------10-10\9-5-5v~\--/10-9-5-5/7v~---------------------------------------------------------|
G|--------------------------------------------------------------------------------------------------------|
D|--------------------------------------------------------------------------------------------------------|

7)
D|---------------------|
A|---------------------|
F|---------------------|
C|--3---x-5-5-x-x-6-6--|
G|--3---x-5-5-x-x-6-6--|
D|--1---x-3-3-x-x-4-4--|

8)
D|-------------------------|
A|-------------------------|
F|-------------------------|
C|--3~---------------------|
G|--3~--SOME-FEEDBACK...\--|
D|--1~---------------------|

Sequence:
1)x1
2)x1
1)x1
2)x1
1)x1
2)x1
3)x1
4)x1
1)x1
2)x1
1)x1
2)x1
3)x1
5)x1
6)x1
3)x2
7)x2
8)x1

SYMBOLS
-------
/ - slide up
\ - slide down
b - bend
h - hammer-on
p - pull-off
v - vibrato
x - muted string

SOME NOTES
----------
Hello there!
This is my first tab of a absolutlly incredible band cKy well-known for the soundtrack to the same-titled
Bam Margera's f..cked movies and of course MTV's Jackass.
This is a lightweight acoustic ballad closes the album and written during debut "Volume 1" record-sessions.
On a UG are already a couple of versions but they are a little curve and I decided to make this contribution.
Because of the quite hazy mastering of this track it's little difficult to hear this guitar part and my tab
may not 100% right. But i Tried))

4th and 5th parts played by two guitars but i make it for one.
If you find it hard you can replace the:
F|--2--|
C|--3--|
on a:
C|--7--|
G|--8--|
I usually play as it was thought it facilitates reshuffle of fingers.

Harmony of 2nd guitar on a final part of solo played whole step down, like this:
A|--/8h10-10b-6\5-5/6-8v~--|

And of course, do not forget - song played without octaver!

Take your comments and edits. I consider everything and make corrections if that right.

Thank you very much. Enjoy it! I hope this helps.

            
            
Suggest correction
Creating personal tab
Creating personal tab
You can edit any tab online and save it as your Personal.

You can edit, replace or remove any tab part or add personal notes – all changes will be seen only by you.

Personal tabs can be accessed anytime from any device, even offline.
Learn more »
Give kudos to tab author, rate the tab!
1 2 3 4 5
comments
print report bad tab
guest
You may want to rate the tab now too:
select rating
Wanna post a correction for this tab? Suggest correction