Oops, an error
Loading. Please wait.

Dressed In Decay bass

version 1
version 1

Whole song

Interactive

by CKY
1,002 views 1 this week
no commentswrite comment
1 2 3 4 5
x 3
add to favorites
×
Save as Personal and add changes to this tab that will be seen only by you. Learn more ›
×
You can save this tab as Personal to edit and correct it or add notes. All changes will be seen only by you. Learn more »
launch autoscroll
font size
0
reset
guitar tuner
edit
Autoscroll
slow
fast
+/-
esc
set tempo
stop
Artist: CKY
Song: Dressed in Decay
Album: An Answer Can Be Found
Tabber: !GabbaGabba!
E-mail: caca_King_89@yahoo.com

 

 This is the 3rd track from CKY's An Answer Can Be Found cd. 
I was supprised that no one has tabbed seeing that its actually 
a pretty easy song. Well, if u have an question just email or PM
me and I'll do my best to help u out. Enjoi!


Tunning: Drop-D *Low 2 High- (D a d g)

  
   . Staccato
  /  slide up
  \  slide down
  h  hammer-on
  p  pull-off
  ~  vibrato
 <>  N. harmonic
  x  Mute note
 



Intro/Verse:
g||------------------------------------------------------------------||
d||*-----------------------------------------------------------------||
a||*-----------------------------------------------------------------||
D||--3-3-3-3-3-3-3-3-3-3-3-3-3-3-3-3-0-0-0-0-0-0-0-0-0-0-0-0-0-0-0-0-||

g||------------------------------------------------------------------||
d||-----------------------------------------------------------------*||
a||-1-1-1-1-1-1-1-1-1-1-1-1-1-1-1-1---------------------------------*||
D||---------------------------------0-0-0-0-0-0-0-0-0-0-0-0-0-0-0-0--||X2



Pre-Chorus:
g||---------------------------------------------------||
d||*--------------------------------------------------||
a||*--0--0--0--0--0--0--0-----2--2--2--2--2--2--5--4--||
D||------------------------4--------------------------||

g||----------------------------------------------------||
d||---------------------------------------------------*||
a||--0--0--0--0--0--0--0-----2--2--2--2--2--2--2--2\--*||
D||-----------------------4----------------------------||X2



Chorus:
g||---------------------------------------------------------------------||
d||*-------------------------------------------------------------------*||
a||*---------.----.----.----.----.----.-----------.----.---------------*||
D||---4-4----4----4----7----7----7----7----0-0----0----0----0-0----2~---||X2


g||--------------------------------------------------||
d||*-------------------------------------------------||
a||*-------------------------------------------------||
D||--4--4--4--4--4--4--4--4--7--7--7--7--7--7--7--7--||

g||--------------------------------------------------||
d||-------------------------------------------------*||
a||-------------------------------------------------*||
D||--0--0--0--0--0--0--0--0--0--0--0--0--0--0--2--2--||X2


Intro/Verse: 

Pre-Chorus: 

Chorus:  


Guitar Bit:
g||----------------------------------------------------------------------||
d||*--------------------------------------------------------------------*||
a||*------------------------------------1----1-1----1-------------------*||
D||---3----3-3----3/5--0----0-0----0---------------------0----0-0----0---||X4


Chorus: 

End.

            
            
Suggest correction
Creating personal tab
Creating personal tab
You can edit any tab online and save it as your Personal.

You can edit, replace or remove any tab part or add personal notes – all changes will be seen only by you.

Personal tabs can be accessed anytime from any device, even offline.
Learn more »
Give kudos to tab author, rate the tab!
1 2 3 4 5
comments
print report bad tab
guest
You may want to rate the tab now too:
select rating
Wanna post a correction for this tab? Suggest correction