Oops, an error
Loading. Please wait.

Dressed In Decay Tab

version 4
version 4

Whole song

Interactive

by CKY
2,499 views 15 this week
3 commentsread comments
1 2 3 4 5
excellent!
x 13
add to favorites
launch autoscroll
font size
0
reset
how to read this tab
guitar tuner
Autoscroll
slow
fast
+/-
esc
set tempo
stop
Help us to improve Ultimate-Guitar.com Take our survey!
×
Author
Difficulty
Tuning
intermediate
D G C F A D
  
  CKY - Dressed in Decay
  From the album "An Answer Can Be Found"
  Tabbed by Eric Jenssen (1ndustry)
  http://www.youtube.com/user/campkillyourshelf
        
  **    Tuning: DGCFAD (whole step down)

  Palm muting not included.
  Tabbed while watching the "Deron Miller instructional DVD".
  This is only for Deron Miller's guitar.

  Check out this video I made using Deron Miller's own
  instructional video on how to play this song. I added
  the tabs over him playing so you can understand it better.
  Link: https://youtu.be/AYtFveqs36o

  0:00 INTRO
  0:17 PRE-CHORUS
  0:33 CHORUS
  1:06 INTRO
  1:23 PRE-CHORUS
  1:39 CHORUS
  2:12 INTRO (with effect)
  2:43 CHORUS

  0:00 - 0:16
  INTRO

D|------------------------------------------------------------------|\
A|------------------------------------------------------------------| \
F|------------------------------------------------------4-4---------|  \
C|----------------------5-5-----5/7-----5-5-----7-7---------5-5-----|   \
G|----------5-5-7-7-----------------7-7-----7-7-----7-7---------7-7-|    \
D|--3-3-3-3---------3-3-----3-3-------------------------------------|     \
                                                                         (2x)
D|------------------------------------------------------------------|     /
A|------------------------------------------------------------------|    /
F|----------7-7-4-4-------------------------------------4-4---------|   /
C|----------------------5-5-----5/7-----5-5-----7-7---------5-5-----|  /
G|--3-3-3-3---------3-3-----3-3-----7-7-----7-7-----7-7---------7-7-| /
D|------------------------------------------------------------------|/


  0:17 - 0:33
  PRE-CHORUS

D|------------------------------------------------------------------|
A|------------------------------------------------------------------|
F|---------------------4-4-----4/6----------------------------4-4---|
C|---------4-4-6-6-------------------------2-2-4-4-----6-6----------|   (4x)
G|-2-2-2-2---------2-2-----2-2-----4-4-4-4---------4-4-----4-4------|
C|------------------------------------------------------------------|


  0:34 - 1:05
  CHORUS

D|----------------------------------------------------------------------|\
A|----------------------------------------------------------------------| \
F|---------------4---3---------------------4---6---6/8--------4---9---8-|  \
C|-------4---6-----------4---6---4-----4/6----------------4/6---6---4---|   \
G|-----6-----------2---2---2---2----------------------------------------|    \
D|-4-4-----4---4-------------------0-0-------0---0----0-0---------------|     \
                                                                             (2x)
D|----------------------------------------------------------------------|     /
A|----------------------------------------------------------------------|    /
F|---------------4---3---------------------4---6---6/8------------------|   /
C|-------4---6-----------4---6---4-----4/6------------------------------|  /
G|-----6-----------2---2---2---2----------------------------2---7---6---| /
D|-4-4-----4---4-------------------0-0-------0---0----0-0-4---4---2-----|/


  1:06 - 1:22
  INTRO

D|------------------------------------------------------------------|\
A|------------------------------------------------------------------| \
F|------------------------------------------------------4-4---------|  \
C|----------------------5-5-----5/7-----5-5-----7-7---------5-5-----|   \
G|----------5-5-7-7-----------------7-7-----7-7-----7-7---------7-7-|    \
D|--3-3-3-3---------3-3-----3-3-------------------------------------|     \
                                                                         (2x)
D|------------------------------------------------------------------|     /
A|------------------------------------------------------------------|    /
F|----------7-7-4-4-------------------------------------4-4---------|   /
C|----------------------5-5-----5/7-----5-5-----7-7---------5-5-----|  /
G|--3-3-3-3---------3-3-----3-3-----7-7-----7-7-----7-7---------7-7-| /
D|------------------------------------------------------------------|/


  1:23 - 1:38
  PRE-CHORUS
 
D|------------------------------------------------------------------|
A|------------------------------------------------------------------|
F|---------------------4-4-----4/6----------------------------4-4---|
C|---------4-4-6-6-------------------------2-2-4-4-----6-6----------|   (4x)
G|-2-2-2-2---------2-2-----2-2------4-4-4-4---------4-4-----4-4-----|
D|------------------------------------------------------------------|


  1:39 - 2:11
  CHORUS

D|----------------------------------------------------------------------|\
A|----------------------------------------------------------------------| \
F|---------------4---3---------------------4---6---6/8--------4---9---8-|  \
C|-------4---6-----------4---6---4-----4/6----------------4/6---6---4---|   \
G|-----6-----------2---2---2---2----------------------------------------|    \
D|-4-4-----4---4-------------------0-0-------0---0----0-0---------------|     \
                                                                             (2x)
D|----------------------------------------------------------------------|     /
A|----------------------------------------------------------------------|    /
F|---------------4---3---------------------4---6---6/8------------------|   /
C|-------4---6-----------4---6---4-----4/6------------------------------|  /
G|-----6-----------2---2---2---2----------------------------2---7---6---| /
D|-4-4-----4---4-------------------0-0-------0---0----0-0-4---4---2-----|/

  2:12 - 2:42
  INTRO (with effect)

D|-------------------------------------|\
A|-------------------------------------| \
F|------------------------------4------|  \  
C|------------5---5/7---5---7-----5----|   \
G|------5-7-----------7---7---7-----7--|    \
D|--3-3-----3---3----------------------|     \
                                            (4x)
D|-------------------------------------|     /
A|-------------------------------------|    /
F|------7-4---------------------4------|   /
C|------------5---5/7---5---7-----5----|  /
G|--3-3-----3---3-----7---7---7-----7--| /
D|-------------------------------------|/


  2:43 - 3:16
  CHORUS

D|----------------------------------------------------------------------|\
A|----------------------------------------------------------------------| \
F|---------------4---3---------------------4---6---6/8--------4---9---8-|  \
C|-------4---6-----------4---6---4-----4/6----------------4/6---6---4---|   \
G|-----6-----------2---2---2---2----------------------------------------|    \
D|-4-4-----4---4-------------------0-0-------0---0----0-0---------------|     \
                                                                             (2x)
D|----------------------------------------------------------------------|     /
A|----------------------------------------------------------------------|    /
F|---------------4---3---------------------4---6---6/8------------------|   /
C|-------4---6-----------4---6---4-----4/6------------------------------|  /
G|-----6-----------2---2---2---2----------------------------2---7---6---| /
D|-4-4-----4---4-------------------0-0-------0---0----0-0-4---4---2-----|/


  -- http://www.youtube.com/user/campkillyourshelf --
                Eric Jenssen (1ndustry)
Suggest correction
What's this?
You can suggest a correction to this tab. Community and Mods will review your correction and vote to approve or reject it.
comments
print report bad tab
3 comments total.
-1 reply
Joarnordli 10 wrote on March 16 2014, 12:20 pm

this tab is accurate

-1 reply
Joarnordli 10 wrote on March 16 2014, 12:21 pm

Danm it.

I commented but my comment went away. Anyhoe, this was very correct.

-1 reply
Joarnordli 10 wrote on March 16 2014, 12:21 pm

I was mistaken. My comment did not go away

guest
You may want to rate the tab now too:
select rating
Please do not post tabs as comments. Select "correction" instead!