Oops, an error
Loading. Please wait.

Escape From Hellview Tab

version 1
by CKY
4,129 views 1 this week
4 commentsread comments
1 2 3 4 5
x 3
add to favorites
launch autoscroll
font size
0
reset
how to read this tab
guitar tuner
×
Best way to learn
"Escape From Hellview"
Autoscroll
slow
fast
+/-
esc
set tempo
stop
Here's the intro to CKY's Escape From Hellview. It's not exactly right, I know.
I was hoping that someone better than me would see this and correct it. Best I could do.
I'll add the rest of the song in sometime later, I figured this was the most dificult part.

skabadelic1@msn.com

-------------------------------------------------------------------------------------|
-------------------------------------------------------------------------------------|
------------------------------------------------------------------------------------.|
-------9-----------9-10---------5-------5---5--7-7/9-0-7-9-0-9-7-9---9---------9----.|
--7-7---7--7-7----------7-7--------7------5-----------------------5---5-5-6-6---6----|
--0-0------0-0----------0-0-----7----------------------------------------------------|
Suggest correction
Give kudos to tab author, rate the tab!
1 2 3 4 5
comments
print report bad tab
4 comments total. Showing first comments.
0 reply
Deron Miller 0 Oct 31, 2002 07:00 PM

ok, well ill correct it for the well being of uitarists like u its:

-----9--------9-10------5-4-7-5--5--------------7-----------------------7---------0-0------0-0-----0-0------------------

-----------7---9-------7-8--------------
-9-0-7-9-0---0---0-9-0-------9-------------------------------------6--6-------------------------------------------------

its 100 percent corrct and most likely how deron miller plays it all of the 00 on the 6th(d once e) string are bass, there are other ways to play it but with distotion the only way to hear every note clearly is this way

0 reply
Deron Miller 0 Oct 31, 2002 07:00 PM

too bad the tab got messed up, well if u email me at chillingout8988@aol.com ill give u the tab

0 reply
sk8-GlObE#7 0 Nov 12, 2002 07:00 PM

how about insted of emailing it to him you just make your own tab so we can all see it bc i realy wanna lern this song

guest
You may want to rate the tab now too:
select rating
Wanna post a correction for this tab? Suggest correction