Oops, an error
Loading. Please wait.

Escape From Hellview tab

version 3
by CKY
14,737 views 21 this week
no commentswrite comment
1 2 3 4 5
x 3
add to favorites
×
Save as Personal and add changes to this tab that will be seen only by you. Learn more ›
×
You can save this tab as Personal to edit and correct it or add notes. All changes will be seen only by you. Learn more »
launch autoscroll
font size
0
reset
how to read this tab
guitar tuner
edit
Autoscroll
slow
fast
+/-
esc
set tempo
stop
Author
Difficulty
Tabbed by Daniel Hayman
Tuning: DGCFAD
Guitarist(s): Deron Miller, Chad I Ginsburg
Okay, I got this song perfect.

MAIN RIFF:
D|-------------------------------------------------------------------|
A|-------------------------------------------------------------------|
F|---------------------------------------------7---9-------7-8-----8-|
C|------9-------9-10-----5-4-7-5---5-9---7-9-----------9---------9---|
G|-7-7----7-7-7------7-7---------7-----5-----5---5---5---5-----6-----|
D|-0-0------0-0------0-0---------------------------------------------|

D|-------------------------------------------------------------------|
A|-------------------------------------------------------------------|
F|---------------------------------------------9---7-------7-8-------|
C|------9-------9-10-----5-4-7-5---5-9---7-9-----------9---------9---|
G|-7-7----7-7-7------7-7---------7-----5-----5---5---5---5-----7---6-|
D|-0-0------0-0------0-0---------------------------------------------|

D|-------------------------------------------------------------------|
A|-------------------------------------------------------------------|
F|---------------------------------------------7---9-------7-8-----8-|
C|------9-------9-10-----5-4-7-5---5-9---7-9-----------9---------9---|
G|-7-7----7-7-7------7-7---------7-----5-----5---5---5---5-----6-----|
D|-0-0------0-0------0-0---------------------------------------------|

VERSE RIFF:
D|-----------------------------------------|
A|-----------------------------------------|
F|----12-11-12-11-------9-11---11-12-------|
C|----------------12-----------------12----|
G|-----------------------------------------|
D|-0-----------------8-------7----------0--|

D|--------------------------------------------------------------------------|
A|--------------------------------------------------------------------------|
F|----12-11-12-11-------9-11---11-12-12/16-16-14-12-14-12-14/16-14-12-14/16-|
C|----------------12--------------------------------------------------------|
G|--------------------------------------------------------------------------|
D|------------------8-------7-----------------------------------------------|

D|-----------------------------------------------------|
A|-----------------------------------------------------|
F|-14-12-14/16----12-11-12-11-------9-11---11h12p11----|
C|----------------------------12--------------------12-|
G|-----------------------------------------------------|
D|-------------0-----------------8-------7-------------|

D|-----------------------------------------|
A|-----------------------------------------|
F|----12-11-12-11-------9-11---11-12-------|
C|----------------12-----------------12----|
G|-----------------------------------------|
D|-0-----------------8-------7----------0--|

D|--------------------------------------------------------------------------|
A|--------------------------------------------------------------------------|
F|----12-11-12-11-------9-11---11-12-12/16-16-14-12-14-12-14/16-14-12-14/16-|
C|----------------12--------------------------------------------------------|
G|--------------------------------------------------------------------------|
D|------------------8-------7-----------------------------------------------|

D|-----------------------------------------------------|
A|-----------------------------------------------------|
F|-14-12-14/16----12-11-12-11-------9-11---11h12p11----|
C|----------------------------12--------------------12-|
G|-----------------------------------------------------|
D|-------------0-----------------8-------7-------------|

PRE-CHORUS RIFF:
D|------------------------------------------------------------------|
A|------------------------------------------------------------------|
F|------------------------------------------------------------------|
C|---------------------------------5-5-5-5-5-5-5-5-4-4-4-4----------|
G|-2-2-2-2-2-2-2-2-2-2-2-2-2-2-2-2-3-3-3-3-3-3-3-3-2-2-2-2-3/5-3-2--|
D|-0-0-0-0-0-0-0-0-0-0-0-0-0-0-0-0----------------------------------|
      (            P.M            )   (    P.M    )   (P.M)

D|------------------------------------------------------------------|
A|------------------------------------------------------------------|
F|------------------------------------------------------------------|
C|---------------------------------5-5-5-5-5-5-5-5-4-4-4-4-7--------|
G|-2-2-2-2-2-2-2-2-2-2-2-2-2-2-2-2-3-3-3-3-3-3-3-3-2-2-2-2-5--------|
D|-0-0-0-0-0-0-0-0-0-0-0-0-0-0-0-0----------------------------------|
      (            P.M            )   (    P.M    )   (P.M)

CHORUS:
D|-------------------------------------------------------------------|
A|-------------------------------------------------------------------|
F|---------------------------------------------7---9-------7-8-----8-|
C|------9-------9-10-----5-4-7-5---5-9---7-9-----------9---------9---|
G|-7-7----7-7-7------7-7---------7-----5-----5---5---5---5-----6-----|
D|-0-0------0-0------0-0---------------------------------------------|

D|-------------------------------------------------------------------|
A|-------------------------------------------------------------------|
F|---------------------------------------------9---7-------7-8-------|
C|------9-------9-10-----5-4-7-5---5-9---7-9-----------9---------9---|
G|-7-7----7-7-7------7-7---------7-----5-----5---5---5---5-----7---6-|
D|-0-0------0-0------0-0---------------------------------------------|

VERSE RIFF:
D|-----------------------------------------|
A|-----------------------------------------|
F|----12-11-12-11-------9-11---11-12-------|
C|----------------12-----------------12----|
G|-----------------------------------------|
D|-0-----------------8-------7----------0--|

D|--------------------------------------------------------------------------|
A|--------------------------------------------------------------------------|
F|----12-11-12-11-------9-11---11-12-12/16-16-14-12-14-12-14/16-14-12-14/16-|
C|----------------12--------------------------------------------------------|
G|--------------------------------------------------------------------------|
D|------------------8-------7-----------------------------------------------|

D|-----------------------------------------------------|
A|-----------------------------------------------------|
F|-14-12-14/16----12-11-12-11-------9-11---11h12p11----|
C|----------------------------12--------------------12-|
G|-----------------------------------------------------|
D|-------------0-----------------8-------7-------------|
(x1)

PRE-CHORUS RIFF:
D|------------------------------------------------------------------|
A|------------------------------------------------------------------|
F|------------------------------------------------------------------|
C|---------------------------------5-5-5-5-5-5-5-5-4-4-4-4----------|
G|-2-2-2-2-2-2-2-2-2-2-2-2-2-2-2-2-3-3-3-3-3-3-3-3-2-2-2-2-3/5-3-2--|
D|-0-0-0-0-0-0-0-0-0-0-0-0-0-0-0-0----------------------------------|
      (            P.M            )   (    P.M    )   (P.M)

D|------------------------------------------------------------------|
A|------------------------------------------------------------------|
F|------------------------------------------------------------------|
C|---------------------------------5-5-5-5-5-5-5-5-4-4-4-4-7--------|
G|-2-2-2-2-2-2-2-2-2-2-2-2-2-2-2-2-3-3-3-3-3-3-3-3-2-2-2-2-5--------|
D|-0-0-0-0-0-0-0-0-0-0-0-0-0-0-0-0----------------------------------|
      (            P.M            )   (    P.M    )   (P.M)

CHORUS:
D|-------------------------------------------------------------------|
A|-------------------------------------------------------------------|
F|---------------------------------------------7---9-------7-8-----8-|
C|------9-------9-10-----5-4-7-5---5-9---7-9-----------9---------9---|
G|-7-7----7-7-7------7-7---------7-----5-----5---5---5---5-----6-----|
D|-0-0------0-0------0-0---------------------------------------------|

D|-------------------------------------------------------------------|
A|-------------------------------------------------------------------|
F|---------------------------------------------9---7-------7-8-------|
C|------9-------9-10-----5-4-7-5---5-9---7-9-----------9---------9---|
G|-7-7----7-7-7------7-7---------7-----5-----5---5---5---5-----7---6-|
D|-0-0------0-0------0-0---------------------------------------------|

D|-------------------------------------------------------------------|
A|-------------------------------------------------------------------|
F|---------------------------------------------7---9-------7-8-----8-|
C|------9-------9-10-----5-4-7-5---5-9---7-9-----------9---------9---|
G|-7-7----7-7-7------7-7---------7-----5-----5---5---5---5-----6-----|
D|-0-0------0-0------0-0---------------------------------------------|

D|-------------------------------------------------------------------|
A|-------------------------------------------------------------------|
F|---------------------------------------------9---7-------7-8-------|
C|------9-------9-10-----5-4-7-5---5-9---7-9-----------9---------9---|
G|-7-7----7-7-7------7-7---------7-----5-----5---5---5---5-----7---6-|
D|-0-0------0-0------0-0---------------------------------------------|

BRIDGE:
D|--------------------------------------|
A|--------------------------------------|
F|--------------------------------------|
C|-----10--------10-11------6-5-8-6---8-|
G|-8-8----8-8-8---------8-8---------6---|
D|--------------------------------------|

D|--------------------------------------|
A|--------------------------------------|
F|--------------------------------------|
C|-----10--------10-11------6-5-8-6-8---|
G|-8-8----8-8-8---------8-8---------6---|
D|--------------------------------------|

D|--------------------------------------|
A|--------------------------------------|
F|--------------------------------------|
C|-----10--------10-11------6-5-8-6---8-|
G|-8-8----8-8-8---------8-8---------6---|
D|--------------------------------------|

D|--------------------------------------|
A|--------------------------------------|
F|--------------------------------------|
C|-----10--------10-11------6-5-8-6-8---|
G|-8-8----8-8-8---------8-8---------6---|
D|--------------------------------------|

D|--------------------------------------|
A|--------------------------------------|
F|--------------------------------------|
C|-----10--------10-11------6-5-8-6---8-|
G|-8-8----8-8-8---------8-8---------6---|
D|--------------------------------------|

D|--------------------------------------|
A|--------------------------------------|
F|--------------------------------------|
C|-----10--------10-11------6-5-8-6-8---|
G|-8-8----8-8-8---------8-8---------6---|
D|--------------------------------------|

PRE-CHORUS RIFF:
D|------------------------------------------------------------------|
A|------------------------------------------------------------------|
F|------------------------------------------------------------------|
C|---------------------------------5-5-5-5-5-5-5-5-4-4-4-4----------|
G|-2-2-2-2-2-2-2-2-2-2-2-2-2-2-2-2-3-3-3-3-3-3-3-3-2-2-2-2-3/5-3-2--|
D|-0-0-0-0-0-0-0-0-0-0-0-0-0-0-0-0----------------------------------|
      (            P.M            )   (    P.M    )   (P.M)

D|------------------------------------------------------------------|
A|------------------------------------------------------------------|
F|------------------------------------------------------------------|
C|---------------------------------5-5-5-5-5-5-5-5-4-4-4-4----------|
G|-2-2-2-2-2-2-2-2-2-2-2-2-2-2-2-2-3-3-3-3-3-3-3-3-2-2-2-2-3/5-3-2--|
D|-0-0-0-0-0-0-0-0-0-0-0-0-0-0-0-0----------------------------------|
      (            P.M            )   (    P.M    )   (P.M)

D|-----------|
A|-----------|
F|-----------|
C|-4-4-4-4-7-|
G|-2-2-2-2-5-|
D|-----------|

CHORUS:
D|-------------------------------------------------------------------|
A|-------------------------------------------------------------------|
F|---------------------------------------------7---9-------7-8-----8-|
C|------9-------9-10-----5-4-7-5---5-9---7-9-----------9---------9---|
G|-7-7----7-7-7------7-7---------7-----5-----5---5---5---5-----6-----|
D|-0-0------0-0------0-0---------------------------------------------|

D|-------------------------------------------------------------------|
A|-------------------------------------------------------------------|
F|---------------------------------------------9---7-------7-8-------|
C|------9-------9-10-----5-4-7-5---5-9---7-9-----------9---------9---|
G|-7-7----7-7-7------7-7---------7-----5-----5---5---5---5-----7---6-|
D|-0-0------0-0------0-0---------------------------------------------|

D|-------------------------------------------------------------------|
A|-------------------------------------------------------------------|
F|---------------------------------------------7---9-------7-8-----8-|
C|------9-------9-10-----5-4-7-5---5-9---7-9-----------9---------9---|
G|-7-7----7-7-7------7-7---------7-----5-----5---5---5---5-----6-----|
D|-0-0------0-0------0-0---------------------------------------------|

D|-------------------------------------------------------------------|
A|-------------------------------------------------------------------|
F|---------------------------------------------9---7-------7-8-------|
C|------9-------9-10-----5-4-7-5---5-9---7-9-----------9---------9---|
G|-7-7----7-7-7------7-7---------7-----5-----5---5---5---5-----7---6-|
D|-0-0------0-0------0-0---------------------------------------------|

D|----
A|----
F|----
C|----
G|-7\-
D|-0\-

END

/ - Slide Up
\ - Slide Down
h - Hammer On
p - Pull Off
P.M - Palm Mute

            
            
Suggest correction
Creating personal tab
Creating personal tab
You can edit any tab online and save it as your Personal.

You can edit, replace or remove any tab part or add personal notes – all changes will be seen only by you.

Personal tabs can be accessed anytime from any device, even offline.
Learn more »
Give kudos to tab author, rate the tab!
1 2 3 4 5
comments
print report bad tab
guest
You may want to rate the tab now too:
select rating
Wanna post a correction for this tab? Suggest correction