Oops, an error
Loading. Please wait.

Escape From Hellview tab

version 8
by CKY
20,135 views 15 this week
7 commentsread comments
1 2 3 4 5
x 7
add to favorites
×
Save as Personal and add changes to this tab that will be seen only by you. Learn more ›
×
You can save this tab as Personal to edit and correct it or add notes. All changes will be seen only by you. Learn more »
launch autoscroll
font size
0
reset
how to read this tab
guitar tuner
edit
Autoscroll
slow
fast
+/-
esc
set tempo
stop
Author
Difficulty
[Escape From Hellview]
[CKY]
[Infiltrate.Destroy.Rebuild]

By: Josh Oliveira
Tuning: DGCFAD

[Intro] - [00:00] - [00:22]
- -----------------------------------------------------------------|
- -----------------------------------------------------------------|
- -------9------------------------------------7---9------7-8-------|
- -----9-------9-10-----5-4-7-5---5-9-0-7-9-0---0---9-0--------9---|
- ------------------------------7----------------------------6---6-|
- -0-0-----0-0------0-0--------------------------------------------|

  -----------------------------------------------------------------|
  -----------------------------------------------------------------|
  -------9------------------------------------9---7------7-8-------|
  -----9-------9-10-----5-4-7-5---5-9-0-7-9-0---0---9-0--------9---|
  ------------------------------7----------------------------6---6-|
  -0-0-----0-0------0-0--------------------------------------------|

  -----------------------------------------------------------------|
  -----------------------------------------------------------------|
  -------9------------------------------------7---9------7-8-------|
  -----9-------9-10-----5-4-7-5---5-9-0-7-9-0---0---9-0--------9---|
  ------------------------------7----------------------------6---6-|
  -0-0-----0-0------0-0--------------------------------------------|

[Verse 1] - [00:22] - [00:51]
- --------------------------------------------------------------------|
- --------------------------------------------------------------------|
- --12-11-12-11------9-11---11-12-------12-11-12-11------9-11---12-11-|
- --------------12----------------12----------------12----------------|
- --------------------------------------------------------------------|
- -0---------------8------7------------0---------------8------7-------|

  ------------------------------------------------------------------|
  -------12-10-8-10-8-12--10-12-------------------------------------|
  -10/12-------------------------12-11------12-11-12-11------9-11---|
  -------------------------------------12---------------12----------|
  ------------------------------------------------------------------|
  ----------------------10------9---------0----------------8------7-|

  --------------------------------------------------------------------|
  --------------------------------------------------------------------|
  -11/12-11-------12-11-12-11------9-11---11-12------12-11-12-11------|
  ----------12----------------12----------------12---------------12---|
  --------------------------------------------------------------------|
  ---------------0---------------8------7----------0----------------8-|

  ---------------------------------------------------------------------|
  -------------11/12-12-10-8-10-8-12--10-12----------------------------|
  -7-9---11-12-------------------------------12-11------12-11-12-11----|
  -------------------------------------------------11---------------12-|
  ---------------------------------------------------------------------|
  -----7----------------------------10-----9----------0----------------|

  ----------------------|
  ----------------------|
  ---9-10---11/12-11----|
  -------------------11-|
  ----------------------|
  -8------7-------------|

[Pre-Chorus 1] - [00:51] - [01:06-------------------------------------|
- --------------------------------------------------------------------|
- --------------------------------------------------------------------|
- --------------------------------------------------------------------|
- --------------------------5--55-55-55-5-44-44-77--------------------|
- -2-22-22-22-22-22-22-22-2-3--33-33-33-3-22-22-55-55--2-22-22-22-22--|
- -0-00-00-00-00-00-00-00-0------------------------33--0-00-00-00-00--|
PM ........................    .....................................

  ------------------------------------|
  ------------------------------------|
  ------------------------------------|
  ------------5--55-55-55-5-44-44-4-7-|
  -22-22-22-2-3--33-33-33-3-22-22-2-5-|
  -00-00-00-0-------------------------|
  ...........    ..................

[Chorus 1] - [01:06] - [01:20]
- -----------------------------------------------------------------|
- -----------------------------------------------------------------|
- -------9------------------------------------7---9------7-8-------|
- -----9-------9-10-----5-4-7-5---5-9-0-7-9-0---0---9-0--------9---|
- ------------------------------7----------------------------6---6-|
- -0-0-----0-0------0-0--------------------------------------------|

  -----------------------------------------------------------------|
  -----------------------------------------------------------------|
  -------9------------------------------------9---7------7-8-------|
  -----9-------9-10-----5-4-7-5---5-9-0-7-9-0---0---9-0--------9---|
  ------------------------------7----------------------------6---6-|
  -0-0-----0-0------0-0--------------------------------------------|

[Verse 2] - [01:20] - [01:35]
- --------------------------------------------------------------------|
- --------------------------------------------------------------------|
- --12-11-12-11------9-11---11-12-------12-11-12-11------9-11---12-11-|
- --------------12----------------12----------------12----------------|
- --------------------------------------------------------------------|
- -0---------------8------7------------0---------------8------7-------|

  ------------------------------------------------------------------|
  -------12-10-8-10-8-12--10-12-------------------------------------|
  -10/12-------------------------12-11------12-11-12-11------9-11---|
  -------------------------------------12---------------12----------|
  ------------------------------------------------------------------|
  ----------------------10------9---------0----------------8------7-|

  -------------|
  -------------|
  -11/12-11----|
  ----------12-|
  -------------|
  -------------|

[Pre-Chorus 2] - [01:35] - [01:50-------------------------------------|
- --------------------------------------------------------------------|
- --------------------------------------------------------------------|
- --------------------------------------------------------------------|
- --------------------------5--55-55-55-5-44-44-77--------------------|
- -2-22-22-22-22-22-22-22-2-3--33-33-33-3-22-22-55-55--2-22-22-22-22--|
- -0-00-00-00-00-00-00-00-0------------------------33--0-00-00-00-00--|
PM ........................    .....................................

  ------------------------------------|
  ------------------------------------|
  ------------------------------------|
  ------------5--55-55-55-5-44-44-4-7-|
  -22-22-22-2-3--33-33-33-3-22-22-2-5-|
  -00-00-00-0-------------------------|
  ...........    ..................

[Chorus 2] - [01:50] - [02:20]
- -----------------------------------------------------------------|
- -----------------------------------------------------------------|
- --------------------------------------------7---9------7-8-------|
- -----9-------9-10-----5-4-7-5---5-9-0-7-9-0---0---9-0--------9---|
- -------7----------------------7----------------------------6---6-|
- -0-0-----0-0------0-0--------------------------------------------|

  -----------------------------------------------------------------|
  -----------------------------------------------------------------|
  --------------------------------------------9---7------7-8-------|
  -----9-------9-10-----5-4-7-5---5-9-0-7-9-0---0---9-0--------9---|
  -------7----------------------7----------------------------6---6-|
  -0-0-----0-0------0-0--------------------------------------------|

  -----------------------------------------------------------------|
  -----------------------------------------------------------------|
  -------9------------------------------------7---9------7-8-------|
  -----9-------9-10-----5-4-7-5---5-9-0-7-9-0---0---9-0--------9---|
  ------------------------------7----------------------------6---6-|
  -0-0-----0-0------0-0--------------------------------------------|

  -----------------------------------------------------------------|
  -----------------------------------------------------------------|
  -------9------------------------------------9---7------7-8-------|
  -----9-------9-10-----5-4-7-5---5-9-0-7-9-0---0---9-0--------9---|
  ------------------------------7----------------------------6---6-|
  -0-0-----0-0------0-0--------------------------------------------|

[Bridge] - [02:20] - [02:42]
- -----------------------------------------------------------------------|
- -----------------------------------------------------------------------|
- -------10----------------------------------10--------------------------|
- -----10-------10-11-----6-5-8-6---8------10-------10-11-----6-5-8-6----|
- -8-8------8-8-------8-8---------6----8-8------8-8-------8-8---------6~-|
- -----------------------------------------------------------------------|

  -----------------------------------------------------------------------|
  -----------------------------------------------------------------------|
  -------10----------------------------------10--------------------------|
  -----10-------10-11-----6-5-8-6---8------10-------10-11-----6-5-8-6----|
  -8-8------8-8-------8-8---------6----8-8------8-8-------8-8---------6~-|
  -----------------------------------------------------------------------|

  -----------------------------------------------------------------------|
  -----------------------------------------------------------------------|
  -------10----------------------------------10--------------------------|
  -----10-------10-11-----6-5-8-6---8------10-------10-11-----6-5-8-6----|
  -8-8------8-8-------8-8---------6----8-8------8-8-------8-8---------6~-|
  -----------------------------------------------------------------------|

[Fill] - [02:42] - [02:56]
- -------------------------------------------------------------------|
- -------------------------------------------------------------------|
- -------------------------------------------------------------------|
- --------------------------5--55-55-55-5-44-44-77-------------------|
- -2-22-22-22-22-22-22-22-2-3--33-33-33-3-22-22-55-55--2-22-22-22-22-|
- -0-00-00-00-00-00-00-00-0------------------------33--0-00-00-00-00-|
PM ........................    .....................................

  ------------------------------------------|
  ------------------------------------------|
  ------------------------------------------|
  ------------5--55-55-55-5-44-44-4-7-----5-|
  -22-22-22-2-3--33-33-33-3-22-22-2-5-5-----|
  -00-00-00-0---------------------------3---|
  ...........    ..................

[Synth & Singing] - [02:56] - [03:08]

[Pre-Chorus] - [03:08] - [03:10-|
- ------------------------------|
- ------------------------------|
- ------------------------------|
- -------7----------------------|
- -9-99--5----------------------|
- -7-77-------------------------|
PM ....

[Chorus 3] - [03:10] - [03:40]
- -----------------------------------------------------------------|
- -----------------------------------------------------------------|
- --------------------------------------------7---9------7-8-------|
- -----9-------9-10-----5-4-7-5---5-9-0-7-9-0---0---9-0--------9---|
- -------7----------------------7----------------------------6---6-|
- -0-0-----0-0------0-0--------------------------------------------|

  -----------------------------------------------------------------|
  -----------------------------------------------------------------|
  --------------------------------------------9---7------7-8-------|
  -----9-------9-10-----5-4-7-5---5-9-0-7-9-0---0---9-0--------9---|
  -------7----------------------7----------------------------6---6-|
  -0-0-----0-0------0-0--------------------------------------------|

  -----------------------------------------------------------------|
  -----------------------------------------------------------------|
  -------9------------------------------------7---9------7-8-------|
  -----9-------9-10-----5-4-7-5---5-9-0-7-9-0---0---9-0--------9---|
  ------------------------------7----------------------------6---6-|
  -0-0-----0-0------0-0--------------------------------------------|

  -----------------------------------------------------------------|
  -----------------------------------------------------------------|
  --------------------------------------------9---7------7-8-------|
  -----9-------9-10-----5-4-7-5---5-9-0-7-9-0---0---9-0--------9---|
  -------7----------------------7----------------------------6---6-|
  -0-0-----0-0------0-0--------------------------------------------|

[Outro] - [03:40] - [03:41]
- -----|
- -----|
- -----|
- -9\--
- -7\--
- -0---

[Symbols]
~     Let Note Ring.
/     Slide Forward From First Note To The Second.
PM... Palm Mute Notes With Dots (.) Under Them.

            
            
Suggest correction
Creating personal tab
Creating personal tab
You can edit any tab online and save it as your Personal.

You can edit, replace or remove any tab part or add personal notes – all changes will be seen only by you.

Personal tabs can be accessed anytime from any device, even offline.
Learn more »
comments
print report bad tab
7 comments total. Showing first comments.
+2 reply
SystemFailure 10 Sep 05, 2007 08:38 AM

Hey, any chance of some amp settings please man?
Deron's sound is Crazy hard to find.

+3 reply
AntonsKey 10 Nov 14, 2007 04:27 PM

all i know is he uses the octave pedal like nobody's business. my friend has his sound down to a science. it's perfect.
i'll ask him

+1 reply
Cky2k96 10 Apr 01, 2008 07:07 PM

I heard Deron uses a boss octave pedal, but who know's.

guest
You may want to rate the tab now too:
select rating
Wanna post a correction for this tab? Suggest correction