Oops, an error
Loading. Please wait.

Escape From Hellview tab

version 9
by CKY
1,414 views 21 this week
4 commentsread comments
1 2 3 4 5
1 last vote to show rating
add to favorites
×
Save as Personal and add changes to this tab that will be seen only by you. Learn more ›
×
You can save this tab as Personal to edit and correct it or add notes. All changes will be seen only by you. Learn more »
launch autoscroll
font size
0
reset
how to read this tab
guitar tuner
edit
Autoscroll
slow
fast
+/-
esc
set tempo
stop
  
  CKY - Escape From Hellview
  From the album "Infiltrate.Destroy.Rebuild"
  http://www.youtube.com/user/campkillyourshelf

  **    Tuning: DGCFAD (whole step down)

  Tabbed while watching the instructional DVD that Deron Miller (composer) made.
  If you want the DVD you can buy it here: http://ckyrockandmetal.bigcartel.com/
  Please comment if you've got any questions concerning the tab or song.
  Remember to rate and leave some feedback!

  If you think the tab for the intro is wrong, here is a video
  of Deron Miller playing it: https://youtu.be/DcHSzfmMO-Y

  **    This tab does not include palm muting.

  0:00 INTRO
  0:22 VERSE
  0:51 PRE-CHORUS
  1:06 CHORUS
  1:21 VERSE
  1:35 PRE-CHORUS
  1:51 CHORUS
  2:20 "SOLO" BREAK
  2:42 PRE-CHORUS
  2:56 "SILENT PART"
  3:10 CHORUS

  0:00 - 0:21
  INTRO

d|---------------------------------------------------------------------|
A|---------------------------------------------------------------------|
F|--------9-------------------------------------7---9-------7-8--------|
C|------9-------9-10----------7-5---5-9---7-9-----------9---------9----|
G|----7-------7--------7-10-9-----7-----5-----5---5---5---5-----6---6--|
D|--0-------0--------0-------------------------------------------------|

d|---------------------------------------------------------------------|
A|---------------------------------------------------------------------|
F|--------9-------------------------------------9---7-------7-8--------|
C|------9-------9-10----------7-5---5-9---7-9-----------9---------9----|
G|----7-------7--------7-10-9-----7-----5-----5---5---5---5-----6---6--|
D|--0-------0--------0-------------------------------------------------|

d|---------------------------------------------------------------------|
A|---------------------------------------------------------------------|
F|--------9-------------------------------------7---9-------7-8--------|
C|------9-------9-10----------7-5---5-9---7-9-----------9---------9----|
G|----7-------7--------7-10-9-----7-----5-----5---5---5---5-----6---6--|
D|--0-------0--------0-------------------------------------------------|

  0:22 - 0:50
  VERSE

d|----------------------------------------------------------------|\
A|----------------------------------------------------------------| \
F|----------------------------------------------------------------|  \
C|-------5-4-5-4-----2-4---4-5---------5-4-5-4-----2-4---4-5-5/9--|   \
G|----/7---------5-3-----2-----5----/7---------5-3-----2----------|    \
D|--0-----------------------------0-------------------------------|     \
                                                                       (x2)
d|----------------------------------------------------------------|     /
A|----------------------------------------------------------------|    /
F|-----------------------------4----------------------------------|   /
C|----/9-7-5-7-5-9-7--5-9-7--5---------5-4-5-4-----2-4---4/5-4----|  /
G|-----------------5------4---------/7---------5-3-----2-------5--| /
D|--0-----------------------------0-------------------------------|/

  0:51 - 1:05
  PRE-CHORUS

d|---------------------------------------------------------------------------|
A|--------Listen-to-the-song-for-palm-muting-in-the-pre-chorus---------------|
F|---------------------------------------------------------------------------|
C|--2---------5--------4--------7----------5--2---------5--------4--------7--|
G|--2--(x16)--3--(x8)--2--(x4)--5--(x2)-------2--(x16)--3--(x8)--2--(x4)--5--|
D|--0------------------------------------3----0------------------------------|

  1:06 - 1:20
  CHORUS

d|---------------------------------------------------------------------|
A|---------------------------------------------------------------------|
F|--------9-------------------------------------7---9-------7-8--------|
C|------9-------9-10----------7-5---5-9---7-9-----------9---------9----|
G|----7-------7--------7-10-9-----7-----5-----5---5---5---5-----6---6--|
D|--0-------0--------0-------------------------------------------------|

d|---------------------------------------------------------------------|
A|---------------------------------------------------------------------|
F|--------9-------------------------------------9---7-------7-8--------|
C|------9-------9-10----------7-5---5-9---7-9-----------9---------9----|
G|----7-------7--------7-10-9-----7-----5-----5---5---5---5-----6---6--|
D|--0-------0--------0-------------------------------------------------|

  1:21 - 1:34
  VERSE

d|----------------------------------------------------------------|
A|----------------------------------------------------------------|
F|----------------------------------------------------------------|
C|-------5-4-5-4-----2-4---4-5---------5-4-5-4-----2-4---4-5-5/9--|
G|----/7---------5-3-----2-----5----/7---------5-3-----2----------|
D|--0-----------------------------0-------------------------------|

d|----------------------------------------------------------------|
A|----------------------------------------------------------------|
F|-----------------------------4----------------------------------|
C|----/9-7-5-7-5-9-7--5-9-7--5---------5-4-5-4-----2-4---4/5-4----|
G|-----------------5------4---------/7---------5-3-----2-------5--|
D|--0-----------------------------0-------------------------------|

  1:35 - 1:50
  PRE-CHORUS

d|---------------------------------------------------------------------------|
A|--------Listen-to-the-song-for-palm-muting-in-the-pre-chorus---------------|
F|---------------------------------------------------------------------------|
C|--2---------5--------4--------7----------5--2---------5--------4--------7--|
G|--2--(x16)--3--(x8)--2--(x4)--5--(x2)-------2--(x16)--3--(x8)--2--(x4)--5--|
D|--0------------------------------------3----0------------------------------|

  1:51 - 2:19
  CHORUS

d|---------------------------------------------------------------------|\
A|---------------------------------------------------------------------| \
F|--------9-------------------------------------7---9-------7-8--------|  \
C|------9-------9-10----------7-5---5-9---7-9-----------9---------9----|   \
G|----7-------7--------7-10-9-----7-----5-----5---5---5---5-----6---6--|    \
D|--0-------0--------0-------------------------------------------------|     \
                                                                            (x2)
d|---------------------------------------------------------------------|     /
A|---------------------------------------------------------------------|    /
F|--------9-------------------------------------9---7-------7-8--------|   /
C|------9-------9-10----------7-5---5-9---7-9-----------9---------9----|  /
G|----7-------7--------7-10-9-----7-----5-----5---5---5---5-----6---6--| /
D|--0-------0--------0-------------------------------------------------|/

  2:20 - 2:41
  "SOLO" BREAK

d|-----------------------------------------------------------------------------|
A|-----------------------------------------------------------------------------|
F|--------10-------------------------------------10----------------------------|
C|-----10--------10-11-----------8-6---8------10--------10-11-----------8-6--8-|  (x3)
G|-8-8-------8-8-------8-8-11-10-----6----8-8-------8-8-------8-8-11-10------6-|
D|-----------------------------------------------------------------------------|

  2:42 - 2:55
  PRE-CHORUS

d|--------------------------------------------------------------------|
A|--------Listen-to-the-song-for-palm-muting-in-the-pre-chorus--------|
F|--------------------------------------------------------------------|
C|--2---------5--------4--------7----------5--|
G|--2--(x16)--3--(x8)--2--(x4)--5--(x2)-------|  (x2)
D|--0------------------------------------3----|

  2:56 - 3:09
  "SILENT PART"

  This part is mostly silent, but some guitar can be heard in the background.
  Probably based on the verse part, I'm not really able to tab this part out.

  3:10 - 3:41
  CHORUS

d|---------------------------------------------------------------------|\
A|---------------------------------------------------------------------| \
F|--------9-------------------------------------7---9-------7-8--------|  \
C|------9-------9-10----------7-5---5-9---7-9-----------9---------9----|   \
G|----7-------7--------7-10-9-----7-----5-----5---5---5---5-----6---6--|    \
D|--0-------0--------0-------------------------------------------------|     \
                                                                            (x2)
d|---------------------------------------------------------------------|     /
A|---------------------------------------------------------------------|    /
F|--------9-------------------------------------9---7-------7-8--------|   /
C|------9-------9-10----------7-5---5-9---7-9-----------9---------9----|  /
G|----7-------7--------7-10-9-----7-----5-----5---5---5---5-----6---6--| /
D|--0-------0--------0-------------------------------------------------|/

  Please rate and leave some feedback, this took me a while.

  Check out my YouTube-channel for more CKY-related videos.
    -- http://www.youtube.com/user/campkillyourshelf --
                  Eric Jenssen (1ndustry)

            
            
Suggest correction
Creating personal tab
Creating personal tab
You can edit any tab online and save it as your Personal.

You can edit, replace or remove any tab part or add personal notes – all changes will be seen only by you.

Personal tabs can be accessed anytime from any device, even offline.
Learn more »
Give kudos to tab author, rate the tab!
1 2 3 4 5
comments
print report bad tab
4 comments total. Showing first comments.
0 reply
Agar4life 30 Aug 12, 2017 08:59 PM

Love the tab: I think it's the most accurate yet (because it's based on Deron's own lesson).
I disagree with the tabbing of the verses though - I don't know why it would move down the fretboard like that. I imagine it's more accurate (and more like Deron's own playing in general) to put it like this:
d|--------------------------------------------------------------------|
A|--------------------------------------------------------------------|
F|--------------------------------------------------------------------|
C|------------------------------------------------------------------/9|
G|----/7-10-9-10-9------7-9---9-10-5----/7-10-9-10-9------7-9---9-10--|
D|--0--------------10-8-----7--------0---------------10-8-----7-------|

d|----------------------------------------------------------------|
A|----------------------------------------------------------------|
F|-----------------------------4----------------------------------|
C|----/9-7-5-7-5-9-7--5-9-7--5------------------------------------|
G|-----------------5------4---------/7-10-9-10-9------7-9---9-10-5|
D|--0-----------------------------0--------------10-8-----7-------|

guest
You may want to rate the tab now too:
select rating
Wanna post a correction for this tab? Suggest correction