Oops, an error
Loading. Please wait.

Flesh Into Gear Tab

version 3
version 3
by CKY
33,868 views 24 this week
12 commentsread comments
1 2 3 4 5
excellent!
x 33
add to favorites
launch autoscroll
font size
0
reset
how to read this tab
guitar tuner
Tab Pro tools
  • play this tab
  • loop segment
  • change instrument
  • show fretboard
  • metronome
×
Best way to learn
"Flesh Into Gear"
Autoscroll
slow
fast
+/-
esc
set tempo
stop
-Cky's fisrt single off of I.D.R.- Heres the 100% correct version,
and believe me cause i watch them play it this way...

Intro/Verses
|-----------------------------------------------|
|-----------------------------------------------|
|--------------------4--66666-------------------|
|-22222~-------------4--66666--6-4--------------|
|-22222~-------------2--44444------4-4-----7-6--|
|-00000~-4-0-2-0-4-0-------------------4-7------|


Chorus
|---------------------------------------|
|---------------------------------------|
|---------------------------------------| x3
|-777777777777-99-77-666666666666-44-2--|
|-777777777777-99-77-666666666666-44-2--|
|-555555555555-77-55-444444444444-22-0--|
  ************ ** ** ************ ** *
after you played the chorus three times then play this
|---------------------------------------|
|---------------------------------------|
|---------------------------------------|
|-777777777777-99-77-666666666666-4444--|
|-777777777777-99-77-666666666666-4444--|
|-555555555555-77-55-444444444444-2222--|
  ************ ** ** ************ ****

solo
|------------------------------------------------------------------------
|------------------------------------------------------------------------
|-------------------------------------------4h6--------------------------
|-6-4-66-6-4-2-4-2-4-6-4-2-44-6-4-2-4-2-4-6-----66-6-4-2-4-2-4-6-4-2-44--
|-----44-------------------22-------------------44-------------------22--
|------------------------------------------------------------------------

|------------------------------------------------------------------|
|------------------------------------------------------------------|
|-----------------------------------------------------------4h6----|
|-6-4-2-4-2-----------22-6-4-2-4-2-4-6-4-2-44-6-4-2-4-2-4-6-----66-|
|-----------4-2-0-----00-------------------22-------------------44-|
|-----------------2h4----------------------------------------------|

|----------------------------------------------------------------|
|----------------------------------------------------------------|
|------------------------------------4h6-------------------------|
|-6-4-2-4-2-4-6-4-2-44-6-4-2-4-2-4-6-----66-6-4-2-4-2-4-6-4-2-44-|
|-------------------22-------------------44-------------------22-|
|----------------------------------------------------------------|

|-------------------------------------------------------------------|
|-------------------------------------------------------------------|
|---------------4h6-------------------------------------------------|
|-6-4-2-4-2-4-6-----66-6-4-2-4-2-4-6-4-2-44-----2-4-2-----------22--|
|-------------------44-------------------22-0-4-------4-2-0-----00--|
|-----------------------------------------------------------2-4-----|

|------------------------------------------------------------|
|------------------------------------------------------------|
|------------------------------------4h6~--------------------|
|-6-4-2-4-2-4-6-4-2-44-6-4-2-4-2-4-6------6-4~---------------|
|-------------------22-------------------------2-4~----------|
|---------------------------------------------------4-0-2h4--|


Thats it enjoi... :)
...Mark Davidson...
comments
print report bad tab
12 comments total. Showing first comments.
0 reply
gingertom25 wrote on April 19 2004, 12:00 am

great tab dude
best flesh into gear tab ive seen on the net
thanx

+1 reply
Mudvayne1217 wrote on October 22 2005, 12:12 am

this tab is pretty good, but its not 100% correct. Here are your errors.

In the intro, you got most of it down, but you missed a couple things....

Intro and the Verses go like this:
|---------------------------------------------------|
|---------------------------------------------------|
|----------------------4--66666-66------------------|
|-22222-22-------------4--66666-66-6-4--------------|
|-22222-22-------------2--44444-44-----4-4-----7-6--|
|-00000-00-4-0-2-0-4-0---------------------4-7------|

and the ending of the solo goes ike this:
|--------------------------|
|--------------------------|
|--------------------------|
|--6-4~--------------------|
|-------2-4~---------------|
|------------4-2~-2h4-000--|

3 stars.

+1 reply
Hand Springs wrote on January 11 2007, 12:20 am

this should be in Eb tuning

I want to post or [tab]
guest
You may want to rate the tab now too:
select rating
Please do not post tabs as comments. Select "correction" instead!