Oops, an error
Loading. Please wait.

Flesh Into Gear tab

version 7
version 7
by CKY
1,709 views 6 this week
no commentswrite comment
1 2 3 4 5
1 last vote to show rating
add to favorites
×
Save as Personal and add changes to this tab that will be seen only by you. Learn more ›
×
You can save this tab as Personal to edit and correct it or add notes. All changes will be seen only by you. Learn more »
launch autoscroll
font size
0
reset
how to read this tab
guitar tuner
edit
Autoscroll
slow
fast
+/-
esc
set tempo
stop
Author
Difficulty
[Flesh Into Gear]
[CKY]
[Infiltrate.Destroy.Rebuild]

By:Josh Oliveira
Tuning: DGCFAD

[Intro] - [00:00] - [00:10]
- -------------------------------------------------------|
- -------------------------------------------------------|
- -------------------------------------------------------|
- -3333-3--3-3---------------7777-7--7-7-7-5-0-------3-2-|
- -3333-3--3-3-------------3-5555-5--5-5-------3-0-3-----|
- -1111-1--1-1-5-0-3-0-3-5-------------------------------|
PM ....    ...               ....

  -------------------------------------------------------|
  -------------------------------------------------------|
  -------------------------------------------------------|
  -3333-3--3-3---------------7777-7--7-7-7-5-0-------3-2-|
  -3333-3--3-3-------------3-5555-5--5-5-------3-0-3-----|
  -1111-1--1-1-5-0-3-0-3-5-------------------------------|
   ....    ...               ....

[Verse 1] - [00:10] - [00:31]
- -------------------------------------------------------|
- -------------------------------------------------------|
- -------------------------------------------------------|
- -3333-3--3-3---------------7777-7--7-7-7-5-0-------3-2-|
- -3333-3--3-3-------------3-5555-5--5-5-------3-0-3-----|
- -1111-1--1-1-5-0-3-0-3-5-------------------------------|
PM ....    ...               ....

  -------------------------------------------------------|
  -------------------------------------------------------|
  -------------------------------------------------------|
  -3333-3--3-3---------------7777-7--7-7-7-5-0-------3-2-|
  -3333-3--3-3-------------3-5555-5--5-5-------3-0-3-----|
  -1111-1--1-1-5-0-3-0-3-5-------------------------------|
   ....    ...               ....

  -------------------------------------------------------|
  -------------------------------------------------------|
  -------------------------------------------------------|
  -3333-3--3-3---------------7777-7--7-7-7-5-0-------3-2-|
  -3333-3--3-3-------------3-5555-5--5-5-------3-0-3-----|
  -1111-1--1-1-5-0-3-0-3-5-------------------------------|
   ....    ...               ....

  -------------------------------------------------------|
  -------------------------------------------------------|
  -------------------------------------------------------|
  -3333-3--3-3---------------7777-7--7-7-7-5-0-------3-2-|
  -3333-3--3-3-------------3-5555-5--5-5-------3-0-3-----|
  -1111-1--1-1-5-0-3-0-3-5-------------------------------|
   ....    ...               ....

[Chorus 1] - [00:31] - [00:51]
- ----------------------------------------------------------------------|
- ----------------------------------------------------------------------|
- ----------------------------------------------------------------------|
- -3333-3333-3333-55-33-2222-2222-2222-55-33--3333-3333-3333-55-33-2222-|
- -1111-1111-1111-33-11-0000-0000-0000-55-33--1111-1111-1111-33-11-0000-|
- -------------------------------------33-11----------------------------|
PM ....................................................................

  -----------------------------------------------------------------------|
  -----------------------------------------------------------------------|
  -----------------------------------------------------------------------|
  -2222-2222-55-33--3333-3333-3333-55-33-2222-2222-2222-55-33--3333-3333-|
  -0000-0000-55-33--1111-1111-1111-33-11-0000-0000-0000-55-33--1111-1111-|
  -----------33-11--------------------------------------33-11------------|
   .....................................................................

  ----------------------------|
  ----------------------------|
  ----------------------------|
  -55-33-2222-2222-2222-55-33-|
  -33-11-0000-0000-0000-55-33-|
  ----------------------33-11-|
   ..........................

[Verse 2] - [00:51] - [01:11]
- -------------------------------------------------------|
- -------------------------------------------------------|
- -------------------------------------------------------|
- -3333-3--3-3---------------7777-7--7-7-7-5-0-------3-2-|
- -3333-3--3-3-------------3-5555-5--5-5-------3-0-3-----|
- -1111-1--1-1-5-0-3-0-3-5-------------------------------|
PM ....    ...               ....

  -------------------------------------------------------|
  -------------------------------------------------------|
  -------------------------------------------------------|
  -3333-3--3-3---------------7777-7--7-7-7-5-0-------3-2-|
  -3333-3--3-3-------------3-5555-5--5-5-------3-0-3-----|
  -1111-1--1-1-5-0-3-0-3-5-------------------------------|
   ....    ...               ....

  -------------------------------------------------------|
  -------------------------------------------------------|
  -------------------------------------------------------|
  -3333-3--3-3---------------7777-7--7-7-7-5-0-------3-2-|
  -3333-3--3-3-------------3-5555-5--5-5-------3-0-3-----|
  -1111-1--1-1-5-0-3-0-3-5-------------------------------|
   ....    ...               ....

  -------------------------------------------------------|
  -------------------------------------------------------|
  -------------------------------------------------------|
  -3333-3--3-3---------------7777-7--7-7-7-5-0-------3-2-|
  -3333-3--3-3-------------3-5555-5--5-5-------3-0-3-----|
  -1111-1--1-1-5-0-3-0-3-5-------------------------------|
   ....    ...               ....

[Chorus 2] - [01:11] - [01:31]
- ----------------------------------------------------------------------|
- ----------------------------------------------------------------------|
- ----------------------------------------------------------------------|
- -3333-3333-3333-55-33-2222-2222-2222-55-33--3333-3333-3333-55-33-2222-|
- -1111-1111-1111-33-11-0000-0000-0000-55-33--1111-1111-1111-33-11-0000-|
- -------------------------------------33-11----------------------------|
PM ....................................................................

  -----------------------------------------------------------------------|
  -----------------------------------------------------------------------|
  -----------------------------------------------------------------------|
  -2222-2222-55-33--3333-3333-3333-55-33-2222-2222-2222-55-33--3333-3333-|
  -0000-0000-55-33--1111-1111-1111-33-11-0000-0000-0000-55-33--1111-1111-|
  -----------33-11--------------------------------------33-11------------|
   .....................................................................

  ----------------------------|
  ----------------------------|
  ----------------------------|
  -55-33-2222-2222-2222-55-33-|
  -33-11-0000-0000-0000-55-33-|
  ----------------------33-11-|
   ..........................

[Solo] - [01:31] - [02:09]
- ----------------------------------------------------------------------|
- ----------------------------------------------------------------------|
- -------------------------------------------5h7------------------------|
- -7-7--7-5-3-5-3-5-7-5-3-5-5--7-5-3-5-3-5-7-----7-7--7-5-3-5-3-5-7-5-3-|
- -5-5--------------------3-3--------------------5-5--------------------|
- ----------------------------------------------------------------------|

  -----------------------------------------------------------------------|
  -----------------------------------------------------------------------|
  -------------------------------------------------------------------5h7-|
  -5-5------0-----------3p2-3-3--7-5-3-5-3-5-7-5-3-5-5--7-5-3-5-3-5-7----|
  -3-3--1-3---3-1-0---------1-1--------------------3-3-------------------|
  ------------------3-1--------------------------------------------------|

  -----------------------------------------------------------------------|
  -----------------------------------------------------------------------|
  -------------------------------------------5h7----------0----------3p2-|
  -7-7--7-5-3-5-3-5-7-5-3-5-5--7-5-3-5-3-5-7-----7-7--1-3---3-1-0--------|
  -5-5--------------------3-3--------------------5-5--------------3-1----|
  -----------------------------------------------------------------------|

  ----------------------------------------------------------------------|
  ----------------------------------------------------------------------|
  -------------------------------------------5h7------------------------|
  -5-5--7-5-3-5-3-5-7-5-3-5-5--7-5-3-5-3-5-7-----7-7--7-5-3-5-3-5-7-5-3-|
  -3-3--------------------3-3--------------------5-5--------------------|
  ----------------------------------------------------------------------|

  --------------------------------------|
  --------------------------------------|
  ------------------5h7^-5--------------|
  -5-5--7-5-3-5-3-5--------7-3h5^-------|
  -3-3----------------------------5p3p0-|
  --------------------------------------|

[Chorus 3] - [02:09] - [02:29]
- ----------------------------------------------------------------------|
- ----------------------------------------------------------------------|
- ----------------------------------------------------------------------|
- -3333-3333-3333-55-33-2222-2222-2222-55-33--3333-3333-3333-55-33-2222-|
- -1111-1111-1111-33-11-0000-0000-0000-55-33--1111-1111-1111-33-11-0000-|
- -------------------------------------33-11----------------------------|
PM ....................................................................

  -----------------------------------------------------------------------|
  -----------------------------------------------------------------------|
  -----------------------------------------------------------------------|
  -2222-2222-55-33--3333-3333-3333-55-33-2222-2222-2222-55-33--3333-3333-|
  -0000-0000-55-33--1111-1111-1111-33-11-0000-0000-0000-55-33--1111-1111-|
  -----------33-11--------------------------------------33-11------------|
   .....................................................................

  ----------------------------|
  ----------------------------|
  ----------------------------|
  -55-33-2222-2222-2222-55-33-|
  -33-11-0000-0000-0000-55-33-|
  ----------------------33-11-|
   ..........................

[Outro] - [02:29] - []
- -------------------------------------------------------|
- -------------------------------------------------------|
- -------------------------------------------------------|
- -3333-3--3-3---------------7777-7--7-7-7-5-0-------3-2-|
- -3333-3--3-3-------------3-5555-5--5-5-------3-0-3-----|
- -1111-1--1-1-5-0-3-0-3-5-------------------------------|
PM ....    ...               ....

  -------------------------------------------------------|
  -------------------------------------------------------|
  -------------------------------------------------------|
  -3333-3--3-3---------------7777-7--7-7-7-5-0-------3-2-|
  -3333-3--3-3-------------3-5555-5--5-5-------3-0-3-----|
  -1111-1--1-1-5-0-3-0-3-5-------------------------------|
   ....    ...               ....

  -------------------------------------------------------|
  -------------------------------------------------------|
  -------------------------------------------------------|
  -3333-3--3-3---------------7777-7--7-7-7-5-0-------3-2-|
  -3333-3--3-3-------------3-5555-5--5-5-------3-0-3-----|
  -1111-1--1-1-5-0-3-0-3-5-------------------------------|
   ....    ...               ....

  -------------------------------------------------------|
  -------------------------------------------------------|
  -------------------------------------------------------|
  -3333-3--3-3---------------7777-7--7-7-7-5-0-------3-2-|
  -3333-3--3-3-------------3-5555-5--5-5-------3-0-3-----|
  -1111-1--1-1-5-0-3-0-3-5-------------------------------|
   ....    ...               ....
  -------------------------------------------------------|
  -------------------------------------------------------|
  -------------------------------------------------------|
  -3333-3--3-3---------------7777-7--7-7-7-5-0-------3-2-|
  -3333-3--3-3-------------3-5555-5--5-5-------3-0-3-----|
  -1111-1--1-1-5-0-3-0-3-5-------------------------------|
   ....    ...               ....

  -------------------------------------------------------|
  -------------------------------------------------------|
  -------------------------------------------------------|
  -3333-3--3-3---------------7777-7--7-7-7-5-0-------3-2-|
  -3333-3--3-3-------------3-5555-5--5-5-------3-0-3-----|
  -1111-1--1-1-5-0-3-0-3-5-------------------------------|
   ....    ...               ....

  -------------------------------------------------------|
  -------------------------------------------------------|
  -------------------------------------------------------|
  -3333-3--3-3---------------7777-7--7-7-7-5-0-------3-2-|
  -3333-3--3-3-------------3-5555-5--5-5-------3-0-3-----|
  -1111-1--1-1-5-0-3-0-3-5-------------------------------|
   ....    ...               ....

  -------------------------------------------------------|
  -------------------------------------------------------|
  -------------------------------------------------------|
  -3333-3--3-3---------------7777-7--7-7-7-5-0-------3-2-|
  -3333-3--3-3-------------3-5555-5--5-5-------3-0-3-----|
  -1111-1--1-1-5-0-3-0-3-5-------------------------------|
   ....    ...               ....

[Symbols]
PM... Palm Mute Notes With Dots (.) Under Them.
h     Hammer On From First Note To The Second.
p     Pull Off From First Note To The Second.
^     This Isn't A Bend, When You See This Slightly Wiggle Your Finger
      On The Note Doing Multiple Small Bends.
Suggest correction
Creating personal tab
Creating personal tab
You can edit any tab online and save it as your Personal.

You can edit, replace or remove any tab part or add personal notes – all changes will be seen only by you.

Personal tabs can be accessed anytime from any device, even offline.
Learn more »
Give kudos to tab author, rate the tab!
1 2 3 4 5
comments
print report bad tab
guest
You may want to rate the tab now too:
select rating
Wanna post a correction for this tab? Suggest correction