Oops, an error
Loading. Please wait.

Lies From You tab

version 1
version 1

Whole song

Interactive

by CKY
10 views 3 this week
no commentswrite comment
1 2 3 4 5
3 more votes to show rating
add to favorites
×
Save as Personal and add changes to this tab that will be seen only by you. Learn more ›
×
You can save this tab as Personal to edit and correct it or add notes. All changes will be seen only by you. Learn more »
launch autoscroll
font size
0
reset
how to read this tab
guitar tuner
edit
Autoscroll
slow
fast
+/-
esc
set tempo
stop
Guitar 1 - D Standard

     Q    E  E  E  E  E  E     E  E  E  E  E  E  Q       Q    E  E  E  E  E  E     E  E  E  E  Q    Q     
D||-------------------------|-------------------------|-------------------------|------------------------|
A||-------------------------|-------------------------|-------------------------|------------------------|
F||-------------------------|-------------------------|-------------------------|------------------------|
C||----------------6--------|--------6----------------|----------------6--------|--------6--x------------|
G||----------4--6-----6--7--|--L--7-----7--9--6-------|----------4--6-----6--7--|--L--7-----x------------|
D||--4----7-----------------|--------------------7----|--4----7-----------------|-----------x--7----6----|


  Q    E  E  E  E  E  E     E  E  E  E  E  E  Q       Q    E  E  E  E  E  E     E  E  E  E  Q    Q     
-------------------------|-------------------------|-------------------------|------------------------|
-------------------------|-------------------------|-------------------------|------------------------|
-------------------------|-------------------------|-------------------------|------------------------|
----------------6--------|--------6----------------|----------------6--------|--------6--x------------|
----------4--6-----6--7--|--L--7-----7--9--6-------|----------4--6-----6--7--|--L--7-----x------------|
--4----7-----------------|--------------------7----|--4----7-----------------|-----------x--7----6----|


  Q    E  E  E  E  E  E     E  E  E  E  E  E  Q       Q    E  E  E  E  E  E     E  E  E  E  Q    Q     
-------------------------|-------------------------|-------------------------|------------------------|
-------------------------|-------------------------|-------------------------|------------------------|
-------------------------|-------------------------|-------------------------|------------------------|
----------------6--------|--------6----------------|----------------6--------|--------6--x------------|
----------4--6-----6--7--|--L--7-----7--9--6-------|----------4--6-----6--7--|--L--7-----x------------|
--4----7-----------------|--------------------7----|--4----7-----------------|-----------x--7----6----|


  Q    E  E  E  E  E  E     E  E  E  E  E  E  Q       Q    E  E  E  E  E  E     E  E  E  E  Q    Q     
-------------------------|-------------------------|-------------------------|------------------------|
-------------------------|-------------------------|-------------------------|------------------------|
-------------------------|-------------------------|-------------------------|------------------------|
----------------6--------|--------6----------------|----------------6--------|--------6--x------------|
----------4--6-----6--7--|--L--7-----7--9--6-------|----------4--6-----6--7--|--L--7-----x------------|
--4----7-----------------|--------------------7----|--4----7-----------------|-----------x--7----6----|


  Q    E  E  E  E  E  E     E  E  E  E  E  E  Q       Q    E  E  E  E  E  E     E  E  E  E  Q    Q     
-------------------------|-------------------------|-------------------------|------------------------|
-------------------------|-------------------------|-------------------------|------------------------|
-------------------------|-------------------------|-------------------------|------------------------|
-------------------------|--------6----------------|-------------------------|--------6--x------------|
----------4--6-----6--7--|--L--7-----7--9--6-------|----------4--6-----6--7--|--L--7-----x--9----8----|
--4----7--------4--------|--------------------7----|--4----7--------4--------|-----------x--7----6----|


  Q    E  E  E  E  E  E     E  E  E  E  E  E  Q       Q    E  E  E  E  E  E     E  E  E  E  Q    Q     
-------------------------|-------------------------|-------------------------|------------------------|
-------------------------|-------------------------|-------------------------|------------------------|
-------------------------|-------------------------|-------------------------|------------------------|
-------------------------|--------6----------------|-------------------------|--------6--x------------|
----------4--6-----6--7--|--L--7-----7--9--6-------|----------4--6-----6--7--|--L--7-----x------------|
--4----7--------4--------|--------------------7----|--4----7--------4--------|-----------x--7----6----|


  E  E  E  E  E  E  Q       Q    Q    Q    Q       E  E  E  E  E  E  Q       Q    E  E  E  E  Q     
-------------------------|----------------------|-------------------------|------------------------|
-------------------------|----------------------|-------------------------|------------------------|
-------------------------|----------------------|-------------------------|------------------------|
-------------------------|----------------------|-------------------------|------------------------|
--6--6--L--6--6--L--6----|--L----7----6---------|--6--6--6--6--6--L--6----|--L----6--7--6--4--6----|
--4--4--L--4--4--L-------|-----------------7----|--4--4--4--4--4--L-------|------------------------|


  E  E  E  E  E  E  Q       Q    Q    Q    Q       E  E  E  E  E  E  Q       Q    E  E  E  E  Q     
-------------------------|----------------------|-------------------------|------------------------|
-------------------------|----------------------|-------------------------|------------------------|
-------------------------|----------------------|-------------------------|------------------------|
-------------------------|----------------------|-------------------------|------------------------|
--6--6--L--6--6--L--6----|--L----7----6---------|--6--6--6--6--6--L--6----|--L----6--7--6--4--6----|
--4--4--L--4--4--L-------|-----------------7----|--4--4--4--4--4--L-------|------------------------|


  E  E  E  E  E  E  Q       Q    Q    Q    Q       E  E  E  E  E  E  Q       Q    E  E  E  E  Q     
-------------------------|----------------------|-------------------------|------------------------|
-------------------------|----------------------|-------------------------|------------------------|
-------------------------|----------------------|-------------------------|------------------------|
-------------------------|----------------------|-------------------------|------------------------|
--6--6--L--6--6--L--6----|--L----7----6---------|--6--6--6--6--6--L--6----|--L----6--7--6--4--6----|
--4--4--L--4--4--L-------|-----------------7----|--4--4--4--4--4--L-------|------------------------|


  E  E  E  E  E  E  Q       Q    Q    Q    Q       E  E  E  E  E  E  Q       Q    E  E  E  E  Q     
-------------------------|----------------------|-------------------------|------------------------|
-------------------------|----------------------|-------------------------|------------------------|
-------------------------|----------------------|-------------------------|------------------------|
-------------------------|----------------------|-------------------------|------------------------|
--6--6--L--6--6--L--6----|--L----7----6---------|--6--6--6--6--6--L--6----|--L----6--7--6--4--6----|
--4--4--L--4--4--L-------|-----------------7----|--4--4--4--4--4--L-------|------------------------|


   Q     Q     Q    Q       W                    Q     Q     Q    Q       W                 
--12----11---------------|-------------------|--12----11---------------|-------------------|
--------------12----L----|--L----------------|--------------12----L----|--L----------------|
-------------------------|-------------------|-------------------------|-------------------|
-------------------------|-------------------|-------------------------|-------------------|
-------------------------|-------------------|-------------------------|-------------------|
-------------------------|-------------------|-------------------------|-------------------|


   Q     Q     Q    Q       W                    Q     Q     Q    Q       W                 
--12----11---------------|-------------------|--12----11---------------|-------------------|
--------------12----L----|--L----------------|--------------12----L----|--L----------------|
-------------------------|-------------------|-------------------------|-------------------|
-------------------------|-------------------|-------------------------|-------------------|
-------------------------|-------------------|-------------------------|-------------------|
-------------------------|-------------------|-------------------------|-------------------|


                      Q    E  E  E  E  E  E     E  E  E  E  E  E  Q       Q    E  E  E  E  E  E   
-------------------|-------------------------|-------------------------|-------------------------|
-------------------|-------------------------|-------------------------|-------------------------|
-------------------|-------------------------|-------------------------|-------------------------|
-------------------|----------------6--------|--------6----------------|----------------6--------|
-------------------|----------4--6-----6--7--|--L--7-----7--9--6-------|----------4--6-----6--7--|
-------------------|--4----7-----------------|--------------------7----|--4----7-----------------|


  E  E  E  E  Q    Q       Q    E  E  E  E  E  E     E  E  E  E  E  E  Q       Q    E  E  E  E  E  E   
------------------------|-------------------------|-------------------------|-------------------------|
------------------------|-------------------------|-------------------------|-------------------------|
------------------------|-------------------------|-------------------------|-------------------------|
--------6--x------------|----------------6--------|--------6----------------|----------------6--------|
--L--7-----x------------|----------4--6-----6--7--|--L--7-----7--9--6-------|----------4--6-----6--7--|
-----------x--7----6----|--4----7-----------------|--------------------7----|--4----7-----------------|


  E  E  E  E  Q    Q       Q    E  E  E  E  E  E     E  E  E  E  E  E  Q       Q    E  E  E  E  E  E   
------------------------|-------------------------|-------------------------|-------------------------|
------------------------|-------------------------|-------------------------|-------------------------|
------------------------|-------------------------|-------------------------|-------------------------|
--------6--x------------|-------------------------|--------6----------------|-------------------------|
--L--7-----x------------|----------4--6-----6--7--|--L--7-----7--9--6-------|----------4--6-----6--7--|
-----------x--7----6----|--4----7--------4--------|--------------------7----|--4----7--------4--------|


  E  E  E  E  Q    Q       Q    E  E  E  E  E  E     E  E  E  E  E  E  Q       Q    E  E  E  E  E  E   
------------------------|-------------------------|-------------------------|-------------------------|
------------------------|-------------------------|-------------------------|-------------------------|
------------------------|-------------------------|-------------------------|-------------------------|
--------6--x------------|-------------------------|--------6----------------|-------------------------|
--L--7-----x--9----8----|----------4--6-----6--7--|--L--7-----7--9--6-------|----------4--6-----6--7--|
-----------x--7----6----|--4----7--------4--------|--------------------7----|--4----7--------4--------|


  E  E  E  E  Q    Q       E  E  E  E  E  E  Q       Q    Q    Q    Q       E  E  E  E  E  E  Q     
------------------------|-------------------------|----------------------|-------------------------|
------------------------|-------------------------|----------------------|-------------------------|
------------------------|-------------------------|----------------------|-------------------------|
--------6--x------------|-------------------------|----------------------|-------------------------|
--L--7-----x------------|--6--6--L--6--6--L--6----|--L----7----6---------|--6--6--6--6--6--L--6----|
-----------x--7----6----|--4--4--L--4--4--L-------|-----------------7----|--4--4--4--4--4--L-------|


  Q    E  E  E  E  Q       E  E  E  E  E  E  Q       Q    Q    Q    Q       E  E  E  E  E  E  Q     
------------------------|-------------------------|----------------------|-------------------------|
------------------------|-------------------------|----------------------|-------------------------|
------------------------|-------------------------|----------------------|-------------------------|
------------------------|-------------------------|----------------------|-------------------------|
--L----6--7--6--4--6----|--6--6--L--6--6--L--6----|--L----7----6---------|--6--6--6--6--6--L--6----|
------------------------|--4--4--L--4--4--L-------|-----------------7----|--4--4--4--4--4--L-------|


  Q    E  E  E  E  Q       E  E  E  E  E  E  Q       Q    Q    Q    Q       E  E  E  E  E  E  Q     
------------------------|-------------------------|----------------------|-------------------------|
------------------------|-------------------------|----------------------|-------------------------|
------------------------|-------------------------|----------------------|-------------------------|
------------------------|-------------------------|----------------------|-------------------------|
--L----6--7--6--4--6----|--6--6--L--6--6--L--6----|--L----7----6---------|--6--6--6--6--6--L--6----|
------------------------|--4--4--L--4--4--L-------|-----------------7----|--4--4--4--4--4--L-------|


  Q    E  E  E  E  Q       E  E  E  E  E  E  Q       Q    Q    Q    Q       E  E  E  E  E  E  Q     
------------------------|-------------------------|----------------------|-------------------------|
------------------------|-------------------------|----------------------|-------------------------|
------------------------|-------------------------|----------------------|-------------------------|
------------------------|-------------------------|----------------------|-------------------------|
--L----6--7--6--4--6----|--6--6--L--6--6--L--6----|--L----7----6---------|--6--6--6--6--6--L--6----|
------------------------|--4--4--L--4--4--L-------|-----------------7----|--4--4--4--4--4--L-------|


  Q    E  E  E  E  Q        Q     Q     Q    Q       W                    Q     Q     Q    Q     
------------------------|--12----11---------------|-------------------|--12----11---------------|
------------------------|--------------12----L----|--L----------------|--------------12----L----|
------------------------|-------------------------|-------------------|-------------------------|
------------------------|-------------------------|-------------------|-------------------------|
--L----6--7--6--4--6----|-------------------------|-------------------|-------------------------|
------------------------|-------------------------|-------------------|-------------------------|


  W                    Q     Q     Q    Q       W                    Q     Q     Q    Q     
-------------------|--12----11---------------|-------------------|--12----11---------------|
--L----------------|--------------12----L----|--L----------------|--------------12----L----|
-------------------|-------------------------|-------------------|-------------------------|
-------------------|-------------------------|-------------------|-------------------------|
-------------------|-------------------------|-------------------|-------------------------|
-------------------|-------------------------|-------------------|-------------------------|


  W                   S S S S S S S S S S S S S S S S    S S S S S S S S S S S S S S S S  
-------------------|----------------------------------|----------------------------------|
--L----------------|--9-9-----7-7---------------------|----------------------------------|
-------------------|------8-8-----6-6-8-8-----6-6-----|--4-4-----3-3---------------------|
-------------------|----------------------9-9-----8-8-|------6-6-----4-4-6-6-----4-4-----|
-------------------|----------------------------------|----------------------7-7-----6-6-|
-------------------|----------------------------------|----------------------------------|


   H         E   E   E   E     Q    Q     E   E   E   E       Q     E   Q    E   E   E     W                 
----------------------------|-----------------------------|-----------------------------|-------------------|
----------------------------|-----------------------------|-----------------------------|-------------------|
----------------------------|-----------------------------|-----------------------------|-------------------|
----------------11--13--11--|--L----L----11--13--11--13b--|---L----13--11----L--13--11--|--L----------------|
--11--------11--------------|-----------------------------|-----------------------------|-------------------|
----------------------------|-----------------------------|-----------------------------|-------------------|


   Q    Q     E   E   E   E     Q    Q     E   E   E   E      Q     E   E   E   E   E   E   
-----------------------------|-----------------------------|-------------------------------|
-----------------14--16--14--|--L----L----14--16--14--16b--|--L----16--14------14--16--14--|
--16----L----16--------------|-----------------------------|---------------16--------------|
-----------------------------|-----------------------------|-------------------------------|
-----------------------------|-----------------------------|-------------------------------|
-----------------------------|-----------------------------|-------------------------------|


  W                   Q    E  E  E  E  E  E     E  E  E  E  E  E  Q       Q    E  E  E  E  E  E   
-------------------|-------------------------|-------------------------|-------------------------|
--L----------------|-------------------------|-------------------------|-------------------------|
-------------------|-------------------------|-------------------------|-------------------------|
-------------------|-------------------------|--------6----------------|-------------------------|
-------------------|----------4--6-----6--7--|--L--7-----7--9--6-------|----------4--6-----6--7--|
-------------------|--4----7--------4--------|--------------------7----|--4----7--------4--------|


  E  E  E  E  Q    Q       Q    E  E  E  E  E  E     E  E  E  E  E  E  Q       Q    E  E  E  E  E  E   
------------------------|-------------------------|-------------------------|-------------------------|
------------------------|-------------------------|-------------------------|-------------------------|
------------------------|-------------------------|-------------------------|-------------------------|
--------6--x------------|-------------------------|--------6----------------|-------------------------|
--L--7-----x--9----8----|----------4--6-----6--7--|--L--7-----7--9--6-------|----------4--6-----6--7--|
-----------x--7----6----|--4----7--------4--------|--------------------7----|--4----7--------4--------|


  E  E  E  E  Q    Q       Q    E  E  E  E  E  E     E  E  E  E  E  E  Q       Q    E  E  E  E  E  E   
------------------------|-------------------------|-------------------------|-------------------------|
------------------------|-------------------------|-------------------------|-------------------------|
------------------------|-------------------------|-------------------------|-------------------------|
--------6--x------------|-------------------------|--------6----------------|-------------------------|
--L--7-----x--9----8----|----------4--6-----6--7--|--L--7-----7--9--6-------|----------4--6-----6--7--|
-----------x--7----6----|--4----7--------4--------|--------------------7----|--4----7--------4--------|


  E  E  E  E  Q    Q       Q    E  E  E  E  E  E     E  E  E  E  E  E  Q       Q    E  E  E  E  E  E   
------------------------|-------------------------|-------------------------|-------------------------|
------------------------|-------------------------|-------------------------|-------------------------|
------------------------|-------------------------|-------------------------|-------------------------|
--------6--x------------|-------------------------|--------6----------------|-------------------------|
--L--7-----x--9----8----|----------4--6-----6--7--|--L--7-----7--9--6-------|----------4--6-----6--7--|
-----------x--7----6----|--4----7--------4--------|--------------------7----|--4----7--------4--------|


  E  E  E  E  Q    Q       Q    E  E  E  E  E  E     E  E  E  E  E  E  Q       Q    E  E  E  E  E  E   
------------------------|-------------------------|-------------------------|-------------------------|
------------------------|-------------------------|-------------------------|-------------------------|
------------------------|-------------------------|-------------------------|-------------------------|
--------6--x------------|-------------------------|--------6----------------|-------------------------|
--L--7-----x--9----8----|----------4--6-----6--7--|--L--7-----7--9--6-------|----------4--6-----6--7--|
-----------x--7----6----|--4----7--------4--------|--------------------7----|--4----7--------4--------|


  E  E  E  E  Q    Q      
------------------------||
------------------------||
------------------------||
--------6--x------------||
--L--7-----x--9----8----||
-----------x--7----6----||


|----------------------------------------------------------------------------|


Guitar 2 - D Standard

     Q    E  E  E  E  E  E     E  E  E  E  E  E  Q       Q    E  E  E  E  E  E     E  E  E  E  Q    Q     
D||-------------------------|-------------------------|-------------------------|------------------------|
A||-------------------------|-------------------------|-------------------------|------------------------|
F||-------------------------|-------------------------|-------------------------|------------------------|
C||-------------------------|--------6----------------|-------------------------|--------6--x------------|
G||----------4--6-----6--7--|--L--7-----7--9--6-------|----------4--6-----6--7--|--L--7-----x--9----8----|
D||--4----7--------4--------|--------------------7----|--4----7--------4--------|-----------x--7----6----|


  Q    E  E  E  E  E  E     E  E  E  E  E  E  Q       Q    E  E  E  E  E  E     E  E  E  E  Q    Q     
-------------------------|-------------------------|-------------------------|------------------------|
-------------------------|-------------------------|-------------------------|------------------------|
-------------------------|-------------------------|-------------------------|------------------------|
-------------------------|--------6----------------|-------------------------|--------6--x------------|
----------4--6-----6--7--|--L--7-----7--9--6-------|----------4--6-----6--7--|--L--7-----x------------|
--4----7--------4--------|--------------------7----|--4----7--------4--------|-----------x--7----6----|

                                                                     
  Q                     E  E  E  E  E  E     E  E  E  E  E  E  Q       Q    E  E  E  E  E  E   
------------------------------------------|-------------------------|-------------------------|
------------------------------------------|-------------------------|-------------------------|
------------------------------------------|-------------------------|-------------------------|
------------------------------------------|--------6----------------|-------------------------|
---------------------------4--6-----6--7--|--L--7-----7--9--6-------|----------4--6-----6--7--|
--4---------------------7--------4--------|--------------------7----|--4----7--------4--------|


  E  E  E  E  Q    Q       Q    E  E  E  E  E  E     E  E  E  E  E  E  Q       Q    E  E  E  E  E  E   
------------------------|-------------------------|-------------------------|-------------------------|
------------------------|-------------------------|-------------------------|-------------------------|
------------------------|-------------------------|-------------------------|-------------------------|
--------6--x------------|-------------------------|--------6----------------|-------------------------|
--L--7-----x--9----8----|----------4--6-----6--7--|--L--7-----7--9--6-------|----------4--6-----6--7--|
-----------x--7----6----|--4----7--------4--------|--------------------7----|--4----7--------4--------|


  E  E  E  E  Q    Q         Q     E  H         E     H        Q    Q       Q    E   Q    Q    E   
------------------------|--------------------------|---------------------|------------------------|
------------------------|--------------------------|---------------------|------------------------|
------------------------|--/13~----L--8~--------9--|--L--------L----6----|--8----L--11----L----3--|
--------6--x------------|--------------------------|---------------------|------------------------|
--L--7-----x------------|--------------------------|---------------------|------------------------|
-----------x--7----6----|--------------------------|---------------------|------------------------|


  Q    H        Q         Q     E  H         E     H        Q    Q       Q    E   Q    Q    E   
---------------------|--------------------------|---------------------|------------------------|
---------------------|--------------------------|---------------------|------------------------|
--L----1--------8----|--/13~----L--8~--------9--|--L--------L----6----|--8----L--11----L----3--|
---------------------|--------------------------|---------------------|------------------------|
---------------------|--------------------------|---------------------|------------------------|
---------------------|--------------------------|---------------------|------------------------|


  Q    H        Q                                                                     
---------------------|-------|-------|-------|-------|-------|-------|-------|-------|
---------------------|-------|-------|-------|-------|-------|-------|-------|-------|
--L----1--------L----|-------|-------|-------|-------|-------|-------|-------|-------|
---------------------|-------|-------|-------|-------|-------|-------|-------|-------|
---------------------|-------|-------|-------|-------|-------|-------|-------|-------|
---------------------|-------|-------|-------|-------|-------|-------|-------|-------|


  E  E  E  E  E  E   Q       Q    Q    Q    Q       E  E  E  E  E  E   Q       Q    E  E  E  E  Q     
--------------------------|----------------------|--------------------------|------------------------|
--------------------------|----------------------|--------------------------|------------------------|
--------------------------|----------------------|--------------------------|------------------------|
--------------------------|----------------------|--------------------------|------------------------|
--6--6--L--6--6--L--/6----|--L----7----6---------|--6--6--6--6--6--L--/6----|--L----6--7--6--4--6----|
--4--4--L--4--4--L--------|-----------------7----|--4--4--4--4--4--L--------|------------------------|


  E  E  E  E  E  E   Q       Q    Q    Q    Q       E  E  E  E  E  E   Q       Q    E  E  E  E  Q     
--------------------------|----------------------|--------------------------|------------------------|
--------------------------|----------------------|--------------------------|------------------------|
--------------------------|----------------------|--------------------------|------------------------|
--------------------------|----------------------|--------------------------|------------------------|
--6--6--L--6--6--L--/6----|--L----7----6---------|--6--6--6--6--6--L--/6----|--L----6--7--6--4--6----|
--4--4--L--4--4--L--------|-----------------7----|--4--4--4--4--4--L--------|------------------------|


  E  E  E  E  E  E   Q       Q    Q    Q    Q       E  E  E  E  E  E   Q       Q    E  E  E  E  Q     
--------------------------|----------------------|--------------------------|------------------------|
--------------------------|----------------------|--------------------------|------------------------|
--------------------------|----------------------|--------------------------|------------------------|
--------------------------|----------------------|--------------------------|------------------------|
--6--6--L--6--6--L--/6----|--L----7----6---------|--6--6--6--6--6--L--/6----|--L----6--7--6--4--6----|
--4--4--L--4--4--L--------|-----------------7----|--4--4--4--4--4--L--------|------------------------|


  E  E  E  E  E  E   Q       Q    Q    Q    Q       E  E  E  E  E  E   Q       H        E  E  E  E         
--------------------------|----------------------|--------------------------|-----------------------|-----|
--------------------------|----------------------|--------------------------|-----------------------|-----|
--------------------------|----------------------|--------------------------|-----------------------|-----|
--------------------------|----------------------|--------------------------|-----------------------|-----|
--6--6--L--6--6--L--/6----|--L----7----6---------|--6--6--6--6--6--L--/4----|--L--------L--L--------|-----|
--4--4--L--4--4--L--------|-----------------7----|--4--4--4--4--4--L---2----|--L--------7--6--4-----|-----|

                                                                   
  Q                     E  E  E  E  E  E     E  E  E  E  E  E  Q       Q    E  E  E  E  E  E   
------------------------------------------|-------------------------|-------------------------|
------------------------------------------|-------------------------|-------------------------|
------------------------------------------|-------------------------|-------------------------|
------------------------------------------|--------6----------------|-------------------------|
---------------------------4--6-----6--7--|--L--7-----7--9--6-------|----------4--6-----6--7--|
--4---------------------7--------4--------|--------------------7----|--4----7--------4--------|


  E  E  E  E  Q    Q       Q    E  E  E  E  E  E     E  E  E  E  E  E  Q       Q    E  E  E  E  E  E   
------------------------|-------------------------|-------------------------|-------------------------|
------------------------|-------------------------|-------------------------|-------------------------|
------------------------|-------------------------|-------------------------|-------------------------|
--------6--x------------|-------------------------|--------6----------------|-------------------------|
--L--7-----x--9----8----|----------4--6-----6--7--|--L--7-----7--9--6-------|----------4--6-----6--7--|
-----------x--7----6----|--4----7--------4--------|--------------------7----|--4----7--------4--------|


  E  E  E  E  Q    Q         Q     E  H         E     H        Q    Q       Q    E   Q    Q    E   
------------------------|--------------------------|---------------------|------------------------|
------------------------|--------------------------|---------------------|------------------------|
------------------------|--/13~----L--8~--------9--|--L--------L----6----|--8----L--11----L----3--|
--------6--x------------|--------------------------|---------------------|------------------------|
--L--7-----x------------|--------------------------|---------------------|------------------------|
-----------x--7----6----|--------------------------|---------------------|------------------------|


  Q    H        Q         Q     E  H         E     H        Q    Q       Q    E   Q    Q    E   
---------------------|--------------------------|---------------------|------------------------|
---------------------|--------------------------|---------------------|------------------------|
--L----1--------8----|--/13~----L--8~--------9--|--L--------L----6----|--8----L--11----L----3--|
---------------------|--------------------------|---------------------|------------------------|
---------------------|--------------------------|---------------------|------------------------|
---------------------|--------------------------|---------------------|------------------------|


  Q    H        Q                                                                     
---------------------|-------|-------|-------|-------|-------|-------|-------|-------|
---------------------|-------|-------|-------|-------|-------|-------|-------|-------|
--L----1--------L----|-------|-------|-------|-------|-------|-------|-------|-------|
---------------------|-------|-------|-------|-------|-------|-------|-------|-------|
---------------------|-------|-------|-------|-------|-------|-------|-------|-------|
---------------------|-------|-------|-------|-------|-------|-------|-------|-------|


  E  E  E  E  E  E   Q       Q    Q    Q    Q       E  E  E  E  E  E   Q       Q    E  E  E  E  Q     
--------------------------|----------------------|--------------------------|------------------------|
--------------------------|----------------------|--------------------------|------------------------|
--------------------------|----------------------|--------------------------|------------------------|
--------------------------|----------------------|--------------------------|------------------------|
--6--6--L--6--6--L--/6----|--L----7----6---------|--6--6--6--6--6--L--/6----|--L----6--7--6--4--6----|
--4--4--L--4--4--L--------|-----------------7----|--4--4--4--4--4--L--------|------------------------|


  E  E  E  E  E  E   Q       Q    Q    Q    Q       E  E  E  E  E  E   Q       Q    E  E  E  E  Q     
--------------------------|----------------------|--------------------------|------------------------|
--------------------------|----------------------|--------------------------|------------------------|
--------------------------|----------------------|--------------------------|------------------------|
--------------------------|----------------------|--------------------------|------------------------|
--6--6--L--6--6--L--/6----|--L----7----6---------|--6--6--6--6--6--L--/6----|--L----6--7--6--4--6----|
--4--4--L--4--4--L--------|-----------------7----|--4--4--4--4--4--L--------|------------------------|


  E  E  E  E  E  E   Q       Q    Q    Q    Q       E  E  E  E  E  E   Q       Q    E  E  E  E  Q     
--------------------------|----------------------|--------------------------|------------------------|
--------------------------|----------------------|--------------------------|------------------------|
--------------------------|----------------------|--------------------------|------------------------|
--------------------------|----------------------|--------------------------|------------------------|
--6--6--L--6--6--L--/6----|--L----7----6---------|--6--6--6--6--6--L--/6----|--L----6--7--6--4--6----|
--4--4--L--4--4--L--------|-----------------7----|--4--4--4--4--4--L--------|------------------------|


  E  E  E  E  E  E   Q       Q    Q    Q    Q       E  E  E  E  E  E   Q       H        E  E  E  E         
--------------------------|----------------------|--------------------------|-----------------------|-----|
--------------------------|----------------------|--------------------------|-----------------------|-----|
--------------------------|----------------------|--------------------------|-----------------------|-----|
--------------------------|----------------------|--------------------------|-----------------------|-----|
--6--6--L--6--6--L--/6----|--L----7----6---------|--6--6--6--6--6--L--/4----|--L--------L--L--------|-----|
--4--4--L--4--4--L--------|-----------------7----|--4--4--4--4--4--L---2----|--L--------7--6--4-----|-----|


  Q    Q    Q    Q        H         E   E   E   E     Q    Q     E   E   E   E   
----------------------|------------16--14----------|----------------------------|
----------------------|--------------------16--17--|--L----L----19--17--16------|
-------9----8---------|--13------------------------|----------------------------|
-----------------9----|----------------------------|------------------------18--|
----------------------|----------------------------|----------------------------|
----------------------|----------------------------|----------------------------|


   Q     E   Q    E   E   E     W                    Q    Q     E   E   E   E     Q    Q     E   E   E   E    
-----------------------------|-------------------|-----------------------------|-----------------------------|
--------16--17----L--19--16--|--L----------------|-----------------14--16--14--|--L----L---------------------|
-----------------------------|-------------------|--16----L----16--------------|-----------------------------|
---L-------------------------|-------------------|-----------------------------|----------------11--13--13b--|
-----------------------------|-------------------|-----------------------------|------------13---------------|
-----------------------------|-------------------|-----------------------------|-----------------------------|


  Q     E   E   E   E   E   E     W                   S S  S  S S S  S  S S S  S  S S S S S  
-------------------------------|-------------------|----------------------------------------|
-------------------------------|-------------------|--------------------------------9-9-----|
-------------------------------|-------------------|------------------------------------8-8-|
--L----13--11------11--13--11--|--L----------------|------------9-9-------9-9-11-11---------|
---------------13--------------|-------------------|--9-9-11-11-----11-11-------------------|
-------------------------------|-------------------|----------------------------------------|


  S S S S S S S S  S  S S S  S  S S S    S S  S  S S S  S  S S S  S  S S S S S  
--------------------------------------|----------------------------------------|
--7-7---------------------------------|--------------------------------9-9-----|
------6-6-8-8-------------------------|------------------------------------8-8-|
--------------9-9-11-11-----------9-9-|------------9-9-------9-9-11-11---------|
------------------------9-9-11-11-----|--9-9-11-11-----11-11-------------------|
--------------------------------------|----------------------------------------|


  S S S S S S S S  S  S S S  S  S S S    S S  S  S S S  S  S S S  S  S S S S S  
--------------------------------------|----------------------------------------|
--7-7---------------------------------|--------------------------------9-9-----|
------6-6-8-8-------------------------|------------------------------------8-8-|
--------------9-9-11-11-----------9-9-|------------9-9-------9-9-11-11---------|
------------------------9-9-11-11-----|--9-9-11-11-----11-11-------------------|
--------------------------------------|----------------------------------------|


  S S S S S S S S  S  S S S  S  S S S    S S  S  S S S  S  S S S  S  S S S S S  
--------------------------------------|----------------------------------------|
--7-7---------------------------------|--------------------------------9-9-----|
------6-6-8-8-------------------------|------------------------------------8-8-|
--------------9-9-11-11-----------9-9-|------------9-9-------9-9-11-11---------|
------------------------9-9-11-11-----|--9-9-11-11-----11-11-------------------|
--------------------------------------|----------------------------------------|


  S S S S S S S S  S  S S S  S  S S S     S  S  S  S  S  S  S  S  S  S  S  S  S  S  S  S  
--------------------------------------|--------------------------------------16-16-------|
--7-7---------------------------------|--------------------------------------------16-16-|
------6-6-8-8-------------------------|--------------16-16-------16-16-18-18-------------|
--------------9-9-11-11-----------9-9-|--16-16-18-18-------18-18-------------------------|
------------------------9-9-11-11-----|--------------------------------------------------|
--------------------------------------|--------------------------------------------------|


   S  S  S  S  S  S  S  S  S  S  S  S  S  S  S  S     S  S  S  S  S  S  S  S  S  S  S  S  S  S  S  S  
--------------------------------------------------|--------------------------------------16-16-------|
--19-19-------16-16-------------------------------|--------------------------------------------16-16-|
--------18-18-------16-16-18-18-------------16-16-|--------------16-16-------16-16-18-18-------------|
--------------------------------16-16-18-18-------|--16-16-18-18-------18-18-------------------------|
--------------------------------------------------|--------------------------------------------------|
--------------------------------------------------|--------------------------------------------------|


   S  S  S  S  S  S  S  S  S  S  S  S  S  S  S  S     S  S  S  S  S  S  S  S  S  S  S  S  S  S  S  S  
--------------------------------------------------|--------------------------------------16-16-------|
--19-19-------16-16-------------------------------|--------------------------------------------16-16-|
--------18-18-------16-16-18-18-------------16-16-|--------------16-16-------16-16-18-18-------------|
--------------------------------16-16-18-18-------|--16-16-18-18-------18-18-------------------------|
--------------------------------------------------|--------------------------------------------------|
--------------------------------------------------|--------------------------------------------------|


   S  S  S  S  S  S  S  S  S  S  S  S  S  S  S  S     S  S  S  S  S  S  S  S  S  S  S  S  S  S  S  S  
--------------------------------------------------|--------------------------------------16-16-------|
--19-19-------16-16-------------------------------|--------------------------------------------16-16-|
--------18-18-------16-16-18-18-------------16-16-|--------------16-16-------16-16-18-18-------------|
--------------------------------16-16-18-18-------|--16-16-18-18-------18-18-------------------------|
--------------------------------------------------|--------------------------------------------------|
--------------------------------------------------|--------------------------------------------------|


   S  S  S  S  S  S  S  S  S  S  S  S  S  S  S  S     S  S  S  S  S  S  S  S  S  S  S  S  S  S  S  S  
--------------------------------------------------|--------------------------------------16-16-------|
--19-19-------16-16-------------------------------|--------------------------------------------16-16-|
--------18-18-------16-16-18-18-------------16-16-|--------------16-16-------16-16-18-18-------------|
--------------------------------16-16-18-18-------|--16-16-18-18-------18-18-------------------------|
--------------------------------------------------|--------------------------------------------------|
--------------------------------------------------|--------------------------------------------------|


   S  S  S  S  S  S  S  S  S  S  S  S  S  S  S  S     S  S  S  S  S  S  S  S  S  S  S  S  S  S  S  S  
--------------------------------------------------|--------------------------------------16-16-------|
--19-19-------16-16-------------------------------|--------------------------------------------16-16-|
--------18-18-------16-16-18-18-------------16-16-|--------------16-16-------16-16-18-18-------------|
--------------------------------16-16-18-18-------|--16-16-18-18-------18-18-------------------------|
--------------------------------------------------|--------------------------------------------------|
--------------------------------------------------|--------------------------------------------------|


   S  S  S  S  S  S  S  S  S  S  S  S  S  S  S  S   
--------------------------------------------------||
--19-19-------16-16-------------------------------||
--------18-18-------16-16-18-18-------------16-16-||
--------------------------------16-16-18-18-------||
--------------------------------------------------||
--------------------------------------------------||




Duration Legend
---------------
W - whole
H - half
Q - quarter
E - 8th
S - 16th
T - 32nd
X - 64th
. - note dotted
|-n-|  - n-tuplets


Tablature Legend
----------------
L - tied note
x - dead note
g - grace note
(n) - ghost note
> - accentuded note
NH - natural harmonic
AH - artificial harmonic
TH - tapped harmonic
SH - semi harmonic
PH - pitch harmonic
h - hammer on
p - pull off
b - bend
br - bendRelease
pb - preBend
pbr - preBendRelease
brb - bendReleaseBend
\n/ - tremolo bar dip
\n - tremolo bar dive
-/n - tremolo bar Release up
/n\ - tremolo bar inverted dip
/n - tremolo bar return
-\n - tremolo bar Release down
S - shift slide
s - legato slide
/ -  slide into from below or out of upwards
\ -  slide into from above or out of downwards
~ - vibrato
W - wide vibrato
tr - trill
TP - tremolo picking
T - tapping
S - slap
P - pop
< - fade in
^ - brush up
v - brush down

            
            
Suggest correction
Creating personal tab
Creating personal tab
You can edit any tab online and save it as your Personal.

You can edit, replace or remove any tab part or add personal notes – all changes will be seen only by you.

Personal tabs can be accessed anytime from any device, even offline.
Learn more »
Give kudos to tab author, rate the tab!
1 2 3 4 5
comments
print report bad tab
guest
You may want to rate the tab now too:
select rating
Wanna post a correction for this tab? Suggest correction