Oops, an error
Loading. Please wait.

Blue Turning Grey Tab

1,547 views 6 this week
no commentswrite comment
1 2 3 4 5
accurate
x 4
add to favorites
launch autoscroll
font size
0
reset
how to read this tab
guitar tuner
Autoscroll
slow
fast
+/-
esc
set tempo
stop
Help us to improve Ultimate-Guitar.com Take our survey!
×
Difficulty
novice
This song is played by a few guitars... but i think i figured out one of the guitars by
ear. It still sounds good by itself and it's really easy... There's a lot of sliding but
you get used to it. Enjoy x

To play This you will need the C5 Powerchord (8th fret on low E string and 10th fret on
a string), The G5 powerchord (3rd fret on the low E string and 5th fret on the a
string), The A5 powerchord (5th fret on the low E string and 7th fret on the a string),
and lastly the F5 powerchord (1st fret on low E string, 3rd fret on a string. oh, and / means
slide down/up to whatever comes next :) This is my first tab, be kind ;)

e--------------|
b--------------|
g--------------|
d--------------|
a-----10--10---|
E---8---8------| X4

e----------------------------------------------------------------------------------|
b----------------------------------------------------------------------------------|
g----------------------------------------------------------------------------------|
d----------------------------------------------------------------------------------|
a-----10---10---10---10-/---5---5----5---5/--7---7---7---7/--10---10---10---10-----|
E---8----8----8----8---/-3----3----3---3-/-5---5---5---5-/-8----8----8----8--------| X4
(From C5, Slide to G5, to A5, back to C5)

e-----------------------------------------------------------------------|
b-----------------------------------------------------------------------|
g-----------------------------------------------------------------------|
d-----------------------------------------------------------------------|
a-/--3---3---3---3-/--5---5---5---5/--7---7---7---7/--3---3---3---3-----|
E/-1---1---1---1--/-3---3---3---3-/-5---5---5---5-/-1---1---1---1-------|
(From F5, slide to G5, to A5, back to f5)

e-------------------------------------------------------------------------------------------|
b-------------------------------------------------------------------------------------------|
g-------------------------------------------------------------------------------------------|
d-------------------------------------------------------------------------------------------|
a----3---3---3---3-/---5----5----5---5/--7---7---7---7---7---7---7---7/--10---10---10---10--|
E--1---1---1---1--/-3----3----3----3-/-5---5---5---5---5---5---5---5-/-8----8----8----8-----|
(From F5, slide to G5, to A5 (play twice as long as usual), then to C5)

e--------------|
b--------------|
g--------------|
d--------------|
a---10--10-----|
E-8---8--------| X4
comments
print report bad tab
I want to post or [tab]
guest
You may want to rate the tab now too:
select rating
Please do not post tabs as comments. Select "correction" instead!