Oops, an error
Loading. Please wait.

Blameless Tab

55 views 9 this week
no commentswrite comment
1 2 3 4 5
3 more votes to show rating
add to favorites
launch autoscroll
font size
0
reset
how to read this tab
guitar tuner
Autoscroll
slow
fast
+/-
esc
set tempo
stop
Help us to improve Ultimate-Guitar.com Take our survey!
×
Author
Difficulty
intermediate
Pakinggan nyo nlng yung song para makuha niyo paano tugtugin :)
Here's the link: https://m.youtube.com/watch?v=v7xXQ52Uqh0

[Intro]
e|-------------|-------------|-------------|-------------|--------------|-------------|-------------------|
B|--------7----|-------4~----|--------6----|--------2----|---------4----|--------4----|--------6-----6----|
G|--------6----|-------5~----|--------6----|--------3----|---------3----|--------3----|--------7-----7----|
D|-----8-------|----4--------|----6--------|-----2-------|-----4--------|-----4-------|-----6-------------|
A|--6----------|-------------|-4-----------|-------------|--3-----------|--2----------|-------------------|x2
E|0------------|-4-----------|-------------|--2----------|--------------|-------------|--6--------6-------|

[Verse]
e|-------------|-------------|-------------|-------------|--------------|-------------|-------------------|
B|--------7----|-------4~----|--------6----|--------2----|---------4----|--------4----|--------6-----6----|
G|--------6----|-------5~----|--------6----|--------3----|---------3----|--------3----|--------7-----7----|
D|-----8-------|----4--------|----6--------|-----2-------|-----4--------|-----4-------|-----6-------------|
A|--6----------|-------------|-4-----------|-------------|--3-----------|--2----------|-------------------|x2
E|-------------|-4-----------|-------------|--2----------|--------------|-------------|--6--------6-------|

[Pre-chorus]
e|------------|-------------|-------------|-------------|-----------------|--------------------|
B|--------7---|--------6----|--------6----|--------4----|--------4--------|--------3-------3---|
G|--------6---|--------4----|--------6----|--------3----|--------3--------|--------3-------3---|
D|-----8------|-----6-------|----6--------|-----4-------|-----4-------4---|-----3--------------|
A|--6---------|--5----------|-4-----------|--3----------|--2--------------|--1----------1------|x2
E|------------|-------------|-------------|-------------|-----------------|--------------------|

[Chorus]
e|------------x------------|------------x------------|------------x------------|
B|--------4---x-------4----|--------6---x-------6----|--------7---x-------7----|
G|--------4---x-------4----|--------6---x-------6----|--------8---x-------8----|
D|-----4------x------------|-----6------x------------|-----8------x------------|
A|--2---------x----2-------|--4---------x----4-------|--6---------x----6-------|
E|------------x------------|------------x------------|------------x------------|

e|------------x------------|
B|--------6---x-------6----|
G|--------6---x-------6----|
D|-----6------x------------|
A|--4---------x----4-------|x2
E|------------x------------|

e|-------------|-------------|---------------------|
B|--------4----|--------4----|-----6--6-------6----|
G|--------3----|--------3----|-----7--7-------7----|
D|-----4-------|-----4-------|-----6--6-------6----|
A|--3----------|--2----------|---------------------|
E|-------------|-------------|--6----------6-------|

[Verse 2]
e|-------------|-------------|-------------|-------------|--------------|-------------|-------------------|
B|--------7----|-------4~----|--------6----|--------2----|---------4----|--------4----|--------6-----6----|
G|--------6----|-------5~----|--------6----|--------3----|---------3----|--------3----|--------7-----7----|
D|-----8-------|----4--------|----6--------|-----2-------|-----4--------|-----4-------|-----6-------------|
A|--6----------|-------------|-4-----------|-------------|--3-----------|--2----------|-------------------|x2
E|-------------|-4-----------|-------------|--2----------|--------------|-------------|--6--------6-------|

[Pre-chorus]
e|------------|-------------|-------------|-------------|-----------------|--------------------|
B|--------7---|--------6----|--------6----|--------4----|--------4--------|--------3-------3---|
G|--------6---|--------4----|--------6----|--------3----|--------3--------|--------3-------3---|
D|-----8------|-----6-------|----6--------|-----4-------|-----4-------4---|-----3--------------|
A|--6---------|--5----------|-4-----------|--3----------|--2--------------|--1----------1------|x2
E|------------|-------------|-------------|-------------|-----------------|--------------------|

[Chorus]
e|------------x------------|------------x------------|------------x------------|
B|--------4---x-------4----|--------6---x-------6----|--------7---x-------7----|
G|--------4---x-------4----|--------6---x-------6----|--------8---x-------8----|
D|-----4------x------------|-----6------x------------|-----8------x------------|
A|--2---------x----2-------|--4---------x----4-------|--6---------x----6-------|
E|------------x------------|------------x------------|------------x------------|

e|------------x------------|
B|--------6---x-------6----|
G|--------6---x-------6----|
D|-----6------x------------|
A|--4---------x----4-------|x2
E|------------x------------|

e|-------------|-------------|---------------------|
B|--------4----|--------4----|-----6--6-------6----|
G|--------3----|--------3----|-----7--7-------7----|
D|-----4-------|-----4-------|-----6--6-------6----|
A|--3----------|--2----------|---------------------|
E|-------------|-------------|--6----------6-------|

e|--------------|--------------|--------------|-------------|
B|-----7---7----|-----6---6----|-----6---6----|-------------|
G|-----6---6----|-----4---4----|-----6---6----|-------------|
D|-----8---8----|-----6---6----|-----6---6----|-------------|
A|--6-----------|--5-----------|--4-----------|--3--3--4----|4x
E|--------------|--------------|--------------|-------------|

e|--------------|--------------|--------------|--------------|
B|--------7-----|--------6-----|--------6-----|--------4-----|
G|--------6-----|--------4-----|--------6-----|--------3-----|
D|-----8--------|-----6--------|-----6--------|-----4--------|
A|--6-----------|--5-----------|--4-----------|--3-----------|2x
E|--------------|--------------|--------------|--------------|

(strum the chords)
(Its gonna hurt, It's gonna sting but I'll do anything)
e|--------------|--------------|--------------|--------------|
B|------7-------|------6-------|------6-------|------4-------|
G|------6-------|------4-------|------6-------|------3-------|
D|------8-------|------6-------|------6-------|------4-------|
A|------6-------|------5-------|------4-------|------3-------|2x
E|--------------|--------------|--------------|--------------|

(Just to feel you here with me once again)
e|--------------|--------------|--------------|--------------|
B|------4-------|------6-------|------8-------|------6-------|
G|------3-------|------6-------|------7-------|------6-------|
D|------4-------|------6-------|------7-------|------6-------|
A|------2-------|------4-------|------6-------|------4-------|2x
E|--------------|--------------|--------------|--------------|

(Then believe in your lie)
e|-------------|-------------|---------------------|
B|--------4----|--------4----|-----6--6-------6----|
G|--------3----|--------3----|-----7--7-------7----|
D|-----4-------|-----4-------|-----6--6-------6----|
A|--3----------|--2----------|---------------------|
E|-------------|-------------|--6----------6-------|

(Blameless in your side)
e|-------------|-------------|-------------|-------------|--------------|-------------|-------------------|
B|--------7----|-------4~----|--------6----|--------2----|---------4----|--------4----|--------6-----6----|
G|--------6----|-------5~----|--------6----|--------3----|---------3----|--------3----|--------7-----7----|
D|-----8-------|----4--------|----6--------|-----2-------|-----4--------|-----4-------|-----6-------------|
A|--6----------|-------------|-4-----------|-------------|--3-----------|--2----------|-------------------|
E|-------------|-4-----------|-------------|--2----------|--------------|-------------|--6--------6-------|

[Outro]
(Ooooh ooooh)
e|-------------|-------------|-------------|-------------|--------------|-------------|-------------------|
B|--------7----|-------4~----|--------6----|--------2----|---------4----|--------4----|--------6-----6----|
G|--------6----|-------5~----|--------6----|--------3----|---------3----|--------3----|--------7-----7----|
D|-----8-------|----4--------|----6--------|-----2-------|-----4--------|-----4-------|-----6-------------|
A|--6----------|-------------|-4-----------|-------------|--3-----------|--2----------|-------------------|
E|-------------|-4-----------|-------------|--2----------|--------------|-------------|--6--------6-------|

e|-------------|-------------|-------------|-------------|
B|--------7----|-------4~----|--------6----|--------2----|
G|--------6----|-------5~----|--------6----|--------3----|
D|-----8-------|----4--------|----6--------|-----2-------|
A|--6----------|-------------|-4-----------|-------------|
E|-------------|-4-----------|-------------|--2----------|

e|-------------|-------------|---------------------|
B|--------4----|--------4----|-----6--6-------6----|
G|--------3----|--------3----|-----7--7-------7----|
D|-----4-------|-----4-------|-----6--6-------6----|
A|--3----------|--2----------|---------------------|
E|-------------|-------------|--6----------6-------|


************************************

| ~  Vibrato
| x  Dead note

************************************
Suggest correction
Give kudos to tab author, rate the tab!
1 2 3 4 5
comments
print report bad tab
guest
You may want to rate the tab now too:
select rating
Wanna post a correction for this tab? Suggest correction