Oops, an error
Loading. Please wait.

Closure tab

1,456 views 33 this week
no commentswrite comment
1 2 3 4 5
2 more votes to show rating
add to favorites
×
Save as Personal and add changes to this tab that will be seen only by you. Learn more ›
×
You can save this tab as Personal to edit and correct it or add notes. All changes will be seen only by you. Learn more »
launch autoscroll
font size
0
reset
how to read this tab
guitar tuner
edit
Autoscroll
slow
fast
+/-
esc
set tempo
stop
Author
Difficulty
About this tab version
Clara Benin plays this song with a capo, but this tab is for standard tuning. No need for a capo. Listen to the song for strumming patterns. Was this info helpful? Yes No
Strum during Chorus, Bridge and Outro. Listen to the song for strumming patterns.

[Intro]
e|------------1---0----------------------------------1---0----------------------|
B|--------1-----------1-------1------------------1-----------1-------1----------|
G|----2-------------------0h2-----2----------2-------------------0h2-----2------|
D|--3---3---3---3---3---3-------3----------3---3---3---3---3---3-------3--------|
A|------------------------------------------------------------------------------|
E|------------------------------------------------------------------------------|

e|------------1---0--------------------------------------3-------3--------------|
B|--------1-----------1-------1------------------1------------------------------|
G|----2-------------------0h2-----2----------0-------0-------0-------0---0------|
D|--0---0---0---0---0---0-------0-----------------------------------------------|
A|-----------------------------------------3---3---3---3---3---3---3---3--------|
E|------------------------------------------------------------------------------|

[Verse]
The thought of you is clouding up my head, I don't know when this'll ever end
e|------------1---0----------------------------------1---0----------------------|
B|--------1-----------1-------1------------------1-----------1-------1----------|
G|----2-------------------0h2-----2----------2-------------------0h2-----2------|
D|--3---3---3---3---3---3-------3----------3---3---3---3---3---3-------3--------|
A|------------------------------------------------------------------------------|
E|------------------------------------------------------------------------------|

When will you realize                     how much pain you caused inside
e|------------1---0--------------------------------------3-------3--------------|
B|--------1-----------1-------1------------------1------------------------------|
G|----2-------------------0h2-----2----------0-------0-------0-------0---0------|
D|--0---0---0---0---0---0-------0-----------------------------------------------|
A|-----------------------------------------3---3---3---3---3---3---3---3--------|
E|------------------------------------------------------------------------------|

Are you really dense as they say you are, when you're driving in your car
e|------------1---0----------------------------------1---0----------------------|
B|--------1-----------1-------1------------------1-----------1-------1----------|
G|----2-------------------0h2-----2----------2-------------------0h2-----2------|
D|--3---3---3---3---3---3-------3----------3---3---3---3---3---3-------3--------|
A|------------------------------------------------------------------------------|
E|------------------------------------------------------------------------------|

Does it ever cross your mind              How I'm doing, am I fine?
e|------------1---0--------------------------------------3-------3--------------|
B|--------1-----------1-------1------------------1------------------------------|
G|----2-------------------0h2-----2----------0-------0-------0-------0---0------|
D|--0---0---0---0---0---0-------0-----------------------------------------------|
A|-----------------------------------------3---3---3---3---3---3---3---3--------|
E|------------------------------------------------------------------------------|

strum C for four counts

[Chorus]
I'm just looking for answers, I just need some closure, this is driving me insane
e|--1-------------------------1-------------------------0---------------------1--0-|
B|--3-------------------------3-------------------------1---------------------3--1-|
G|--2-------------------------2-------------------------2---------------------2--0-|
D|--3-------------------------3-------------------------2---------------------0--2-|
A|--1-------------------------1-------------------------0------------------------3-|
E|--1-------------------------1-------------------------x------------------------0-|

And I dont know if you'll ever feel the same
e|-----1--------------------0-------------1------|
B|-----3--------------------1-------------3------|
G|-----2--------------------0-------------2------|
D|-----0--------------------2-------------3------|
A|--------------------------3-------------1------|
E|--------------------------0-------------1------|

[Verse]
I still remember all the things we did and all the stupid things I said
e|------------1---0----------------------------------1---0----------------------|
B|--------1-----------1-------1------------------1-----------1-------1----------|
G|----2-------------------0h2-----2----------2-------------------0h2-----2------|
D|--3---3---3---3---3---3-------3----------3---3---3---3---3---3-------3--------|
A|------------------------------------------------------------------------------|
E|------------------------------------------------------------------------------|

I was so naive                           nostalgia's taking over me
e|------------1---0--------------------------------------3-------3--------------|
B|--------1-----------1-------1------------------1------------------------------|
G|----2-------------------0h2-----2----------0-------0-------0-------0---0------|
D|--0---0---0---0---0---0-------0-----------------------------------------------|
A|-----------------------------------------3---3---3---3---3---3---3---3--------|
E|------------------------------------------------------------------------------|

Every time I show up you're not there,   you make me think that you don't care
e|------------1---0----------------------------------1---0----------------------|
B|--------1-----------1-------1------------------1-----------1-------1----------|
G|----2-------------------0h2-----2----------2-------------------0h2-----2------|
D|--3---3---3---3---3---3-------3----------3---3---3---3---3---3-------3--------|
A|------------------------------------------------------------------------------|
E|------------------------------------------------------------------------------|

Always out of sight                   but always on my mind
e|------------1---0--------------------------------------3-------3--------------|
B|--------1-----------1-------1------------------1------------------------------|
G|----2-------------------0h2-----2----------0-------0-------0-------0---0------|
D|--0---0---0---0---0---0-------0-----------------------------------------------|
A|-----------------------------------------3---3---3---3---3---3---3---3--------|
E|------------------------------------------------------------------------------|

[Chorus]
I'm just looking for answers, I just need some closure, this is driving me insane
e|--1-------------------------1-------------------------0---------------------1--0-|
B|--3-------------------------3-------------------------1---------------------3--1-|
G|--2-------------------------2-------------------------2---------------------2--0-|
D|--3-------------------------3-------------------------2---------------------0--2-|
A|--1-------------------------1-------------------------0------------------------3-|
E|--1-------------------------1-------------------------x------------------------0-|

And I dont know if you'll ever feel the same
e|-----1--------------------0-------------1------|
B|-----3--------------------1-------------3------|
G|-----2--------------------0-------------2------|
D|-----0--------------------2-------------3------|
A|--------------------------3-------------1------|
E|--------------------------0-------------1------|

[Bridge]
     Oooh...          
e|----1--0--1--|     
B|----3--1--3--|     
G|----2--0--2--| 2x   
D|----0--2--3--|      
A|-------3--1--|      
E|-------0--1--|     

     I'm still willing to wait so please don't fade away
e|----1--------0----------1--------1------------0-----1--|
B|----3--------1----------3--------3------------1-----3--|
G|----2--------0----------2--------2------------0-----2--|  2x
D|----0--------2----------3--------0------------2-----3--|
A|-------------3----------1---------------------3-----1--|
E|-------------0----------1---------------------0-----1--|

Don't fade away   Don't fade away    Don't fade away   just yet
e|----------1--0---------------1--0---------------1--0-----1--|
B|----------3--1---------------3--1---------------3--1-----3--|
G|----------2--0---------------2--0---------------2--0-----2--| 
D|----------0--2---------------3--2---------------0--2-----3--|
A|-------------3---------------1--3------------------3-----1--|
E|-------------0---------------1--0------------------0-----1--|

[Verse]
Every time I show up you're not there,   you make me think that you don't care
e|------------1---0----------------------------------1---0----------------------|
B|--------1-----------1-------1------------------1-----------1-------1----------|
G|----2-------------------0h2-----2----------2-------------------0h2-----2------|
D|--3---3---3---3---3---3-------3----------3---3---3---3---3---3-------3--------|
A|------------------------------------------------------------------------------|
E|------------------------------------------------------------------------------|

Always out of sight                   but always on my mind
e|------------1---0--------------------------------------3-------3--------------|
B|--------1-----------1-------1------------------1------------------------------|
G|----2-------------------0h2-----2----------0-------0-------0-------0---0------|
D|--0---0---0---0---0---0-------0-----------------------------------------------|
A|-----------------------------------------3---3---3---3---3---3---3---3--------|
E|------------------------------------------------------------------------------|

[Chorus]
I'm just looking for answers, I just need some closure, this is driving me insane
e|--1-------------------------1-------------------------0---------------------1--0-|
B|--3-------------------------3-------------------------1---------------------3--1-|
G|--2-------------------------2-------------------------2---------------------2--0-|
D|--3-------------------------3-------------------------2---------------------0--2-|  2x
A|--1-------------------------1-------------------------0------------------------3-|
E|--1-------------------------1-------------------------x------------------------0-|

And I dont know if you'll ever feel the same
e|-----1--------------------0-------------1------|
B|-----3--------------------1-------------3------|
G|-----2--------------------0-------------2------|
D|-----0--------------------2-------------3------|
A|--------------------------3-------------1------|
E|--------------------------0-------------1------|

[Outro]

So please don't fade away
e|-----1----------0-----1------|
B|-----3----------1-----3------|
G|-----2----------0-----2------|
D|-----0----------2-----3------|
A|----------------3-----1------|
E|----------------0-----1------|

Til I know you feel the same way
e|-----1--------0-------------1------|
B|-----3--------1-------------3------|
G|-----2--------0-------------2------|
D|-----0--------2-------------3------|
A|--------------3-------------1------|
E|--------------0-------------1------|

end on BbM7/F

************************************

| h   Hammer-on

************************************

            
            
Suggest correction
Creating personal tab
Creating personal tab
You can edit any tab online and save it as your Personal.

You can edit, replace or remove any tab part or add personal notes – all changes will be seen only by you.

Personal tabs can be accessed anytime from any device, even offline.
Learn more »
Give kudos to tab author, rate the tab!
1 2 3 4 5
comments
print report bad tab
guest
You may want to rate the tab now too:
select rating
Wanna post a correction for this tab? Suggest correction