Oops, an error
Loading. Please wait.

Off-Beat Tab

version 2
version 2

Whole song

16,137 views 1 this week
no commentswrite comment
1 2 3 4 5
excellent!
x 4
add to favorites
launch autoscroll
font size
0
reset
how to read this tab
guitar tuner
Tab Pro tools
  • play this tab
  • loop segment
  • change instrument
  • show fretboard
  • metronome
Autoscroll
slow
fast
+/-
esc
set tempo
stop
Difficulty
novice
Off-Beat Clara Chung

this is my first tab, dont be mean :)

(h) = hammer on

Chords used:

    G  C  F  D/F# C  A7 Em
E|--3--3--1---3---3--0--0-|
B|--3--3--1---3---3--2--0-|
G|--0--0--2---0---0--0--0-|
D|--0--0--3---2---1--2--2-|
A|--2--0--3---3---3--0--2-|
E|--3--2--1---0---0--0--0-|

-------
|Intro|
----------------------------------------------------------------------------|
E|----------------------------------------------------------------------3---|
B|--------3--------------------3-----------------1--------------------------|
G|-----------0-----0-----0--------0-----0-----0-----0-----0-------0---------|
D|--5--5--------5-----4-----4--------4-----3-----------3-----0h2-----2------|
A|--------------------------------------------------------------------------|
E|--------------------------------------------------------------------------|

Special F indicated by *F*

E|----------------|
B|----------------|
G|----------------|
D|--0h2--0--------|
A|----------2--3--|
E|----------------|

|Intro 2x|


G                     D/F#
I want a library full of our stories
F                          Em
A ship to keep our memories afloat
G
I wanna hit rewind
D/F#
Playback a hundred times
F                           Em
The moment when our hearts aligned

|Intro 2x|
La la la la la la la
La la la la la la la la (x2)

Em            G
Forget the air
                    C
I'll breathe you instead
Em            G
Fill up my lungs
              C
Forget to exhale
C     Cm
Exhaaaale

G       D/F#
I'll be down
              F  C
You be my offbeat
G               D/F#
Let's make rh-rh-rh-rhythm
       A7
And harmony
C         Cm
Waltz to our 3/4

'Cause you put the art in my heart

|Intro 2x|

G
Your warmth and sunny rays
                 D/F#
I'll save for rainy days
*F*
To break in case of emergency
G
And then I'll shut these eyes
D/F#
Playback a thousand times
F                          C
The moment when our hands intertwined

Em            G
Forget the air
                    C
I'll breathe you instead
Em            G
Fill up my lungs
              C
Forget to exhale
C     Cm
Exhaaaale


G       D/F#
I'll be down
              F  C
You be my offbeat
G               D/F#
Let's make rh-rh-rh-rhythm
       A7
And harmony
C         Cm
Waltz to our 3/4

'Cause you put the art in my heart

|Intro 4x|
comments
print report bad tab
I want to post or [tab]
guest
You may want to rate the tab now too:
select rating
Please do not post tabs as comments. Select "correction" instead!