Oops, an error
Loading. Please wait.

Your Love Walks With Me Tab

version 1
version 1

Whole song

Interactive

524 views 1 this week
no commentswrite comment
1 2 3 4 5
3 more votes to show rating
add to favorites
launch autoscroll
font size
0
reset
how to read this tab
guitar tuner
Autoscroll
slow
fast
+/-
esc
set tempo
stop
Help us to improve Ultimate-Guitar.com Take our survey!
×
Author
Difficulty
novice
-----------------------------------------------------------------------------------------------
                           YOUR LOVE WALKS WITH ME - Clare Bowditch
-----------------------------------------------------------------------------------------------
Album:     The Winter I Chose Happiness
Words:     Clare Bowditch
Music:     Clare Bowditch
           http://clarebowditch.com/
           https://www.youtube.com/watch?v=SItXoIfLA6I
Copyright: Clare Bowditch, 2012

Tabbed by:      Philipp Söhnlein 
E-mail:         ultimate-guitar.com@philipp-soehnlein.de
Tuning:         Standard Tuning, Acoustic Guitar, Capo fret 2
Tempo:          93
Time Signature: 6/8

There's also a Guitar Pro version of this tab available at 
http://tabs.ultimate-guitar.com/c/clare_bowditch/your_love_walks_with_me_guitar_pro.htm


Intro:
E |----------------------|----------------------|----------------------|----------------------|
B |----------------------|----------------------|----------------------|----------------------|
G |--------0--------0----|--------0--------0----|--------0--------0----|--------0-------------|
D |-----0--------0-------|-----0--------0-------|-----0--------0-------|-----0----------------|
A |--3--------2----------|--0-------------------|----------------------|--------------0--2----|
E |----------------------|-----------2----------|--3--------3----------|--3--------3----------|

E |----------------------|----------------------|----------------------|---------------------||
B |----------------------|----------------------|----------------------|---------------------||
G |--------0--------0----|--------0--------0----|--------0--------0----|--------0--------0---||
D |-----0--------0-------|-----0--------0-------|-----0--------0-------|-----0--------0------||
A |--3--------2----------|--0-------------------|----------------------|---------------------||
E |----------------------|-----------2----------|--3--------3----------|--3--------3---------||


Verse, Part 1:
E |----------------------|----------------------|----------------------|----------------------|
B |----------------------|----------------------|--------1--------0----|--------0-------------|
G |--------0--------0----|--------0--------0----|--------0--------0----|--------0-------------|
D |-----0--------0-------|-----0--------0-------|-----0--------0-------|-----0----------------|
A |--3--------2----------|--0-------------------|----------------------|--------------0--2----|
E |----------------------|-----------2----------|--3--------3----------|--3--------3----------|

E |----------------------|----------------------|----------------------|---------------------||
B |----------------------|----------------------|--------0*-------0----|--------0--------0---||
G |--------0--------0----|--------0--------0----|--------0--------0----|--------0--------0---||
D |-----0--------0-------|-----0--------0-------|-----0--------0-------|-----0--------0------||
A |--3--------2----------|--0-------------------|----------------------|---------------------||
E |----------------------|-----------2----------|--3--------3----------|--3--------3---------||
                                                  * Only in the second verse the 0 becomes a 1.


Verse, Part 2:
E |----------------------|----------------------|----------------------|---------------------||
B |--------0--------0----|--------0--------0----|--------1--------1----|--------1--------1---||
G |-----0--------0-------|-----0--------0-------|-----0--------0-------|-----0--------0------||
D |--2--------1----------|--0-------------------|----------------------|---------------------||
A |----------------------|-----------4----------|--3--------3----------|--3--------3---------||
E |----------------------|----------------------|----------------------|---------------------||
                                                                                         Repeat


Verse, Part 1 again (remember the *!)

Verse, Part 2 again

Verse, Part 2 again, but with different ending:
E |----------------------|----------------------|----------------------|---------------------||
B |--------0--------0----|--------0--------0----|--------1--------1----|---------------------||
G |-----0--------0-------|-----0--------0-------|-----0--------0-------|---------------------||
D |--2--------1----------|--0-------------------|----------------------|---------------------||
A |----------------------|-----------4----------|--3--------3----------|--3------------------||
E |----------------------|----------------------|----------------------|--------------0--2---||


Chorus:
E |----------------------|----------------------|----------------------|----------------------|
B |--------0--------0----|--------0--------0----|--------1--------1----|--------1--------1----|
G |-----0--0-----0--0----|-----0--0-----0--0----|-----0--0-----0--0----|-----0--0-----0--0----|
D |----------------------|----------------------|----------------------|----------------------|
A |----------------------|----------------------|--3--------3----------|--3--------3----------|
E |--3--------3----------|--3--------3----------|----------------------|----------------------|

E |----------------------|----------------------|----------------------|----------------------|
B |--------0--------0----|--------0--------0----|--------1--------1----|--------1--------1----|
G |-----0--0-----0--0----|-----0--0-----0--0----|-----0--0-----0--0----|-----0--0-----0--0----|
D |--2--------2----------|--2--------2----------|----------------------|----------------------|
A |----------------------|----------------------|--3--------3----------|--3--------3----------|
E |----------------------|----------------------|----------------------|----------------------|

E |----------------------|----------------------|----------------------|----------------------|
B |--------0--------0----|--------0--------0----|--------1--------1----|--------1--------1----|
G |-----0--0-----0--0----|-----0--0-----0--0----|-----0--0-----0--0----|-----0--0-----0--0----|
D |----------------------|----------------------|----------------------|----------------------|
A |----------------------|----------------------|--3--------3----------|--3--------3----------|
E |--3--------3----------|--3--------3----------|----------------------|----------------------|

E |--------3--------3----|--------3-------(3)---|----------------------|---------------------||
B |--------0--------0----|--------0-------(0)---|----------------------|---------------------||
G |-----0--------0-------|-----0-------(0)------|----------------------|---------------------||
D |--2--------2----------|--2--------2----------|----------------------|---------------------||
A |----------------------|----------------------|--4-------------------|--3------------------||
E |----------------------|----------------------|----------------------|---------------------||
                                          Play the notes in brackets only in the second chorus.

Intro again

Verse, Part 1 again

Verse, Part 2 again

Prechorus:
E |----------------------|----------------------|----------------------|----------------------|
B |--------3--------3----|--------3--------3----|--------1--------1----|--------1--------1----|
G |-----0--------0-------|-----0--------0-------|-----0--------0-------|-----0--------0-------|
D |--0--------0----------|--0--------0----------|----------------------|----------------------|
A |----------------------|----------------------|--3--------3----------|--3--------3----------|
E |----------------------|----------------------|----------------------|----------------------|

E |----------------------|---------------------||
B |----------------------|---------------------||
G |----------------------|---------------------||
D |--0-------------------|---------------------||
A |----------------------|---------------------||
E |--3-------------------|--2-----------0--2---||

Chorus again (remember to play the notes in brackets!)

Outro:
E |----------------------|----------------------|----------------------|---------------------||
B |----------------------|----------------------|--------1--------3----|--0------------------||
G |--------0--------0----|--------0--------0----|-----0--------0--0----|--0------------------||
D |-----0--------0-------|-----0--------0-------|----------------------|--0------------------||
A |--3--------2----------|--0-------------------|----------------------|--2------------------||
E |----------------------|-----------2----------|--3--------3----------|--3------------------||
Suggest correction
Give kudos to tab author, rate the tab!
1 2 3 4 5
comments
print report bad tab
guest
You may want to rate the tab now too:
select rating
Wanna post a correction for this tab? Suggest correction