Oops, an error
Loading. Please wait.

Monomania Chords

1,691 views 6 this week
no commentswrite comment
1 2 3 4 5
x 5
add to favorites
launch autoscroll
font size
0
reset
transpose
0
reset
simplify chords
display chords
guitar tuner
Autoscroll
slow
fast
+/-
esc
set tempo
stop
Help us to improve Ultimate-Guitar.com Take our survey!
×
Author
Difficulty
novice
     A
Já te fiz muita canção
       F#m           E
São 4, 5, 6 ou mais
                   D
Eu sei demais que

tá demais
     A
Eu chego com o violão
        F#m
Você só tá querendo paz
       E
Você desvia pra cozinha
       D
e eu vou cantando atrás

           A
Hoje eu falei pra mim
  F#m
Jurei até
    E
Que essa não seria pra você
D
E agora é
           A
Hoje eu falei pra mim
  F#m
Jurei até
    E                       D
Que essa não seria pra você

           A
Se juntar cada verso meu
        F#m                E
e comparar vai dar pra ver
               D
Tem mais você que nota Dó
         A
Eu vou ter que me controlar
              F#m
se um dia eu quero enriquecer
              E                  D
Quem vai comprar esse CD sobre uma pessoa só

           A
Hoje eu falei pra mim
  F#m
Jurei até
    E
Que essa não seria pra você
D
E agora é
           A
Hoje eu falei pra mim
  F#m
Jurei até
    E
Que essa não seria pra você

D Dm


  A          F#m
E|-/12-7--5-7--8^9---|
B|-------------------|
G|-------------------|
D|-------------------|
A|-------------------|
E|-------------------|

  E            D
E|-/12-7-5---5/10---9-|
B|--------------------|
G|--------------------|
D|--------------------|
A|--------------------|
E|--------------------|

 A          F#M
E|-/12-7--5-7--8^9---|
B|-------------------|
G|-------------------|
D|-------------------|
A|-------------------|
E|-------------------|

  E            D         Dm
E|-/7--7-5--5/10---9---5-|
B|-----------------------|
G|-----------------------|
D|-----------------------|
A|-----------------------|
E|-----------------------|


           A
Se juntar cada verso meu
        F#m                E
e comparar vai dar pra ver
               D
Tem mais você que nota Dó
         A
Eu vou ter que me controlar
              F#m
se um dia eu quero enriquecer
              E                  D
Quem vai comprar esse CD sobre uma pessoa só

           A
Hoje eu falei pra mim
  F#m
Jurei até
    E
Que essa não seria pra você
D
E agora é
           A
Hoje eu falei pra mim
  F#m
Jurei até
    E               D       Dm
Que essa não seria pra você

  A          F#m
E|-/12-7--5-7--8^9---|
B|-------------------|
G|-------------------|
D|-------------------|
A|-------------------|
E|-------------------|

  E            D
E|-/12-7-5---5/10-9----|
B|-----------------10--|
G|---------------------|
D|---------------------|
A|---------------------|
E|---------------------|

 A          F#M
E|-/12-7--5-7--8^9---|
B|-------------------|
G|-------------------|
D|-------------------|
A|-------------------|
E|-------------------|

  E            D        Dm              A
E|-/7--7-5--5/10---9---5-----1---------5-|
B|---------------------------------------|
G|---------------------------------------|
D|---------------------------------------|
A|---------------------------------------|
E|---------------------------------------|
Suggest correction
comments
print report bad tab
guest
You may want to rate the tab now too:
select rating
Wanna post a correction for this tab? Suggest correction