Oops, an error
Loading. Please wait.

Ternura tab

160 views 1 this week
no commentswrite comment
1 2 3 4 5
3 more votes to show rating
add to favorites
×
Save as Personal and add changes to this tab that will be seen only by you. Learn more ›
×
You can save this tab as Personal to edit and correct it or add notes. All changes will be seen only by you. Learn more »
launch autoscroll
font size
0
reset
how to read this tab
guitar tuner
edit
Autoscroll
slow
fast
+/-
esc
set tempo
stop
Esta canción por la tonalidad es un poco difícil de tocar, para
facilitar las cosas pueden colocar el capo en el primer traste
para que queden los acordes más fáciles

Espero les guste al igual espero sus comentarios y correcciones


Este es el punteo del Intro

E |------------------|-------------------------|--------------------------|
B |------------------|-------------------------|-------11s-12--11---------|
G |------------------|-------12s-15-12---------|-11-13------------13-11---|
D |-11s-13-13-13-13--|-11-13-----------13-11-9-|------------------------14|
A |------------------|-------------------------|--------------------------|
E |------------------|-------------------------|--------------------------|

E |--------------------------|
B |--------------------------|
G |-------12s-15-12----------|
D |-11-13-----------13-11-9--|
A |--------------------------|
E |--------------------------|

E |----------------|-----------------------|----------------------------|
B |----------------|-----------------------|------11s-12--11------------|
G |----------------|------12s-15-12--------|11-13------------13-11------|
D |11s-13-13-13-13-|11-13-----------13-11-9|-----------------------14-13|
A |----------------|-----------------------|----------------------------|
E |----------------|-----------------------|----------------------------|

E |--------------------------|
B |--------------------------|
G |--------------------------|
D |-11-----------------------|
A |----14-13--11-10-13-11----|
E |--------------------------|


            Eb                         Ab
Gracias mi amor, por la ternura que me das,
                     Eb                      Ab
Por el cariño y el calor, que revivió mi corazón
            Eb                         Ab
Gracias mi amor,  por el momento tan feliz,
                         Bbm         Eb         Ab
Cuando me arrullas en un beso y me enseñas a querer.


       Bbm          Db         Fm               Ab
Me enamore, como gaviota, suspirando allá en el mar,
       Ebm           Ab    Db         Bbm
Me enamore, en tu perfume, en tu intimidad
         Fm    Db    Bbm
En tu destino, me quede.

       Bbm            Db    Fm            Ab
Me enamore, Cuando viajaba, triste en soledad
         Ebm              Ab    Db          Bbm
Pero tu amor, borro en mi vida, huellas y dolor
        Fm     Db     Bbm
No imagine, quererte así.

         Ab          Ebm               Db
Llegaste tú, a despertar el fuego de mis labios
               Ab     Eb     Ab
El sueño que soñé, bendito ayer
               Bbm    Eb     Ab
El sueño que soñé, bendito ayer.

            Eb                         Ab
Gracias mi amor, por esa luz que amaneció,
                     Eb                   Ab
Y como un rayo de ilusión, ilumino mi corazón,
            Eb                        Ab
Gracias mi amor, por esa noche que llegó,
                     Bbm       Eb          Ab
Porque jamás había soñado, una noche tan feliz.


(El mismo punteo del intro)

            Eb                        Ab
Gracias mi amor, por esa noche que llegó,
                      Bbm       Eb          Ab
Porque jamás había llegado, una noche tan feliz.


(Finaliza también con el mismo punteo del intro)

            
            
Suggest correction
Creating personal tab
Creating personal tab
You can edit any tab online and save it as your Personal.

You can edit, replace or remove any tab part or add personal notes – all changes will be seen only by you.

Personal tabs can be accessed anytime from any device, even offline.
Learn more »
Give kudos to tab author, rate the tab!
1 2 3 4 5
comments
print report bad tab
guest
Wanna post a correction for this tab? Suggest correction