Oops, an error
Loading. Please wait.

Lugar Secreto tab

11 views 1 this week
no commentswrite comment
1 2 3 4 5
3 more votes to show rating
add to favorites
×
Save as Personal and add changes to this tab that will be seen only by you. Learn more ›
×
You can save this tab as Personal to edit and correct it or add notes. All changes will be seen only by you. Learn more »
launch autoscroll
font size
0
reset
how to read this tab
guitar tuner
edit
Autoscroll
slow
fast
+/-
esc
set tempo
stop
esta es la continuacion de el intro y el solo

intro continuacion

e-----0-----0--------0-----0--------0-----0-------
b----0-0---0-0-0-0--0-0---0-0-0-0--0-0---0-0-0-0--
g---0---0-0---0-0--0---0-0---0-0--0---0-0---0-0---
d-------------------------------------------------
a-------------------------------------------------
e--8-----7--------8-----7--------5-----5----------

e----0-----0--------0-----0-----0-----0-----------
b---0-0---0-0-0-0--0-0---0-0---0-0---0------------
g--0---0-0---0-0--0---0-0---0-0---0-0-------------
d-------------------------------------------------
a-------------------------------------------------
e-8-----7--------8-----7-----8-----8--------------

el solo
esta en b mayor es muy sencillo

e---------------------------------------
b-------------------10------------------
g---------9-11-12-11--12-11-9-----------
d--9-11-12--------------------12-9------
a---------------------------------------
e---------------------------------------

e---------------------------------------
b-12-10--------10-----------------------
g------12-11-9----12-11-9----9----------
d-------------------------12------------
a---------------------------------------
e---------------------------------------

esta parte cambia de tono a E

e------------------10------------------
b---------10-12-13----13-12-10---------
g-9-11-12----------------------12-9----
d--------------------------------------
a--------------------------------------
e--------------------------------------

e-------------------------------------------
b---------10-12-10---------10---------------
g-9-11-12----------12-11-9----12-11-9----9--
d-------------------------------------12----
a-------------------------------------------
e-------------------------------------------
espero que lo disfruten elguitarrista de claudia
puso otros detalles pero ustedes los notaran
y el tab les ayudara

un saludo a la iglesia BDA de ATL GA
A LA BANDA G11-12 A ALDO A EL PASTOR CHRIS
Y A TODOS LOS SALMISTAS LA IGLESIA DIOS LOS
BENDIGA

            
            
Suggest correction
Creating personal tab
Creating personal tab
You can edit any tab online and save it as your Personal.

You can edit, replace or remove any tab part or add personal notes – all changes will be seen only by you.

Personal tabs can be accessed anytime from any device, even offline.
Learn more »
Give kudos to tab author, rate the tab!
1 2 3 4 5
comments
print report bad tab
guest
Wanna post a correction for this tab? Suggest correction