Oops, an error
Loading. Please wait.

Multitudes Como Estrellas tab

16 views 1 this week
no commentswrite comment
1 2 3 4 5
3 more votes to show rating
add to favorites
×
Save as Personal and add changes to this tab that will be seen only by you. Learn more ›
×
You can save this tab as Personal to edit and correct it or add notes. All changes will be seen only by you. Learn more »
launch autoscroll
font size
0
reset
how to read this tab
guitar tuner
edit
Autoscroll
slow
fast
+/-
esc
set tempo
stop
intro

     (Piano)

D Bm7 D G Asus4 A x2

---------------------------------------------------------------
---------------------------------------------------------------
--11-12-14-14--------11-12-14-14-------------------------------
--------------12-----------------11-(14)-12---(9)--(11)--(12)--
---------------------------------------------------------------
---------------------------------------------------------------                   (Algo asi)

---14-15-17-17-----14-15-17------------17-15-17-15-17-14-15-14--14-14------------
---------------15-----------14-17-15--------------------------17-17--15-16-14-15-
---------------------------------------------------------------------------------
---------------------------------------------------------------------------------
---------------------------------------------------------------------------------
---------------------------------------------------------------------------------


  D                        Am7             D
Me has llamado A conquistar multitudes como estrellas

  Gadd9        G9               Em7    Asus4  A
Ayúdame A soñar con el milagro

      D                    Am7            D      Gadd9         G9         Em7    Asus4 A
en el mundo de la fe un milagro yo puedo tener ayudame a soñar con el milagro


A            F#m7    Bm7              Em7       Asus4
enseñame A creer en ti enseñame A  soñar con el milagro

              F#m7   Bm7         Em7               Asus4
enseñame A confiar en ti se muy bien que estas A mi lado


Em7                     F#m7  G9                    A
Nada es imposible para Dios nada es imposible para el        (G#m7     C#m7     F#m7 B#m7)


Em7       F#m7      G  A        D
 y sin fe es imposible agradarle


Saludos a toda la banda G11:12 saludos a anna,brian,la celula los otros solos de la guitarra 
los pondre mas adelante.

            
            
Suggest correction
Creating personal tab
Creating personal tab
You can edit any tab online and save it as your Personal.

You can edit, replace or remove any tab part or add personal notes – all changes will be seen only by you.

Personal tabs can be accessed anytime from any device, even offline.
Learn more »
Give kudos to tab author, rate the tab!
1 2 3 4 5
comments
print report bad tab
guest
Wanna post a correction for this tab? Suggest correction