Oops, an error
Loading. Please wait.

Aqui Estoy Yo tab

26 views 1 this week
no commentswrite comment
1 2 3 4 5
3 more votes to show rating
add to favorites
×
Save as Personal and add changes to this tab that will be seen only by you. Learn more ›
×
You can save this tab as Personal to edit and correct it or add notes. All changes will be seen only by you. Learn more »
launch autoscroll
font size
0
reset
how to read this tab
guitar tuner
edit
Autoscroll
slow
fast
+/-
esc
set tempo
stop
Muy buena rola esta, no es muy conocida pero ecuchenla
y les va a gustar..este es el arpegeo del principio.
INTRO
e|--0-------0-0-----0/2-0-----0-----0---------0-----2-
B|-----2----2---2---------2-----2---2-----------2---3-
G|-------2--2-----2---------2-----2-2-------------2-2-
D|------------------------------------------2-------0-
A|--0-------0-0---------------0-----0---2-3-----------
E|------------------------------------3---------------
    A
e|--0-----------0----0-------0----0-------0-----0-------0-
B|-----2--------2-------2----2-------2----2--------2----2-
G|-------2------2---------2--2---------2--2----------2--2-
D|--------------------------------------------------------
A|--0-----------0----0-------0----0-------0-----0-------0-
E|--------------------------------------------------------
    Pensando en ti Hoy descubri lo que hay en mi
e|--0-------0----0------0-0---------0---------0-------0/2-0-----
B|-----2----2-------2---2----2------2------------2----------2---
G|-------2--2---------2-2------2----2--------------2----------2-
D|--------------------------------------------------------------
A|--0-------0----0------0-0---------0---------0-----------------
E|--------------------------------------------------------------
    Es el deseo de estar por siempre junto a ti

- asi con esa misma forma de arpegeo sigue durante toda la rola
excepto el coro,ai les va la letra y los acordes del arpegeo y el coro -
TODO ESTO ARPEGEADO
A                 D 
Porque simplemente eres
  A                     A
lo que yo queria encontrar
  G                  A
una perfeccion de Dios

PRECOrO
 A             A               A
Dejame entrar te juro no fallarte
  A                 A 
Deveras no te miento por ti yo estoy muriendo
    G              D          
Aunque hay algo que no entiendo
  A                  A
Como te llegue a querer

CorO (se acaba el arpegeo)
     A     
Si aqui estoy yo
D                              A
el que te extraña cada amanecer
 E                   G             Bm
el que nunca va a dejarte de querer
 A                         D
aunque sientas que estas tan sola
   A
Y aqui estare 
  D                             A
Porque me encanta tu forma de ser
 E               G              Bm
yo solo quiero hacerte comprender
 A                 D   A
que te haria mas feliiiz

A D A E Bm A D A
(empiesa otra vez el precoro arpegeado)
PRECOrO
 A             A               A
Dejame entrar te juro no fallarte
  A                 A 
Deveras no te miento por ti yo estoy muriendo
    G              D          
Aunque hay algo que no entiendo
  A                  A
Como te llegue a querer

CorO (se acaba el arpegeo)
     A     
Si aqui estoy yo
D                              A
el que te extraña cada amanecer
 E               G              Bm
yo solo quiero hacerte comprender
 A                 D   A
que te haria mas feliiiz

e|--0-------0----0------0--0-------0----0------0------0-
B|-----2----2-------2---2-----2----2-------2---2-----2--
G|-------2--2---------2-2-------2--2---------2-2----2---
D|-------------------------------------------------2----
A|--0-------0----0------0--0-------0----0------0--0-----
E|-----------------------------------------------0------
te extraaaño..      uuuuu 
 
bien.. ai esta la rola, esta sencilla...

            
            
Suggest correction
Creating personal tab
Creating personal tab
You can edit any tab online and save it as your Personal.

You can edit, replace or remove any tab part or add personal notes – all changes will be seen only by you.

Personal tabs can be accessed anytime from any device, even offline.
Learn more »
Give kudos to tab author, rate the tab!
1 2 3 4 5
comments
print report bad tab
guest
Wanna post a correction for this tab? Suggest correction