Oops, an error
Loading. Please wait.

Entrego Mi Aflixion bass

15 views 3 this week
no commentswrite comment
1 2 3 4 5
3 more votes to show rating
add to favorites
×
Save as Personal and add changes to this tab that will be seen only by you. Learn more ›
×
You can save this tab as Personal to edit and correct it or add notes. All changes will be seen only by you. Learn more »
launch autoscroll
font size
0
reset
guitar tuner
edit
Autoscroll
slow
fast
+/-
esc
set tempo
stop
WENO PARA TODOS LOS BAJISTAS
ESTA CANCION ES RE FACIL
Y SUENA HERMOZA
ESTER ES EL TAB ORIGINAL K ESTA EN LA(A)

D-----------------6-6----11-11--14-14-13-13-------------
G-----------------7-7----12-12--16-16-14-14-------------
A-------------------------------------------------------
E-------------------------------------------------------

D-----------------6-6----11-11--14-14-16-16-------------
G-----------------7-7----12-12--16-16-18-18-------------
A-------------------------------------------------------
E-------------------------------------------------------


ASTA K DICE
AUNQUE LA NOCHE PUEDA NUBLARSE
EN LA MAÑANA EL GOZO BIEN

D-------------------------------------------------------
G-------------------------------------------------------
A-------------------------------------------------------
E-0s1-0s1-2-2-2-3-3-3-3---------------------------------

D------------------------------|
G-----------------4-4----------|
A--------0-0--5-5-----7-7------|TAB "A"
E----0s1-----------------------|

D--------------------------------|
G-----------------4-4--6-6-------|TAB "B"
A--------0-0--5-5----------------|
E----0s1-------------------------|

EL TAB A Y EL B SE ALTERNAN Q VEZ C/U

LUEGO VUELVE AL TAB CON EL K INICIAMOS EN EL CORO

//Si Señor si, si Señor//
  Si Señor si, si Señor, Amen

------------------------------------------------------

este es un arreglo k pueden aser
luego si no lo hacen sonara hermoso pero
si kieren dejar el papael
de bajista "comun"
apliken esto

D---------------------
G---------------------
A--------0-0--5050----
E----0s1--------------

en el principio del tab a y b

Dios los re bendiga mucho
Suggest correction
Creating personal tab
Creating personal tab
You can edit any tab online and save it as your Personal.

You can edit, replace or remove any tab part or add personal notes – all changes will be seen only by you.

Personal tabs can be accessed anytime from any device, even offline.
Learn more »
Give kudos to tab author, rate the tab!
1 2 3 4 5
comments
print report bad tab
guest
Wanna post a correction for this tab? Suggest correction