Oops, an error
Loading. Please wait.

Majestad bass

27 views 1 this week
no commentswrite comment
1 2 3 4 5
3 more votes to show rating
add to favorites
×
Save as Personal and add changes to this tab that will be seen only by you. Learn more ›
×
You can save this tab as Personal to edit and correct it or add notes. All changes will be seen only by you. Learn more »
launch autoscroll
font size
0
reset
guitar tuner
edit
Autoscroll
slow
fast
+/-
esc
set tempo
stop
Ustedes memorisen las bases (A,B,C,D),la base del precoro;
las notas del estribo,y sigan este orden que
les escribire abajo de las bases.

G|---1---------------------|
D|------4--1---------------|
A|-----------4--2--1-------|
E|--------------------4----| BASE (A)

G|---1---------------------|
D|------4--1---------------|
A|-----------4--1----2--1--|
E|----------------2------4-| BASE (B)

G---1------------|
D-----4--1-----2-|
A----------4-----|
E----------------| BASE (C)

G---1------------|
D-----4--1-------|
A----------4---2-|
E----------------| BASE (D)

PRECORO:
G|-----------------------|
D|-----------------------|
A|--------2---2--2-------|  (Parte Uno)
E|--4--2-----------------|

G|----------------------------------------------|
D|----------------------------------------------|  (Parte Dos)
A|--------2---2--2------------------------------|
E|--4--2--------------2--2-2----0--0-0---0--0-0-| x1
ESTRIBO: B+/F#/G#-/E (La base va al bombo)

Haci va la cancion en orden...  Siganlan !!!
INTRO:  G#-/F#/E Guitarra y Banda (sin bajo) X2

Bases... Ax1/Bx5/Cx1/Bx1/Cx1/Dx1 --> Golpe final G#-
Ax1/Bx1/Cx1/Bx1/Cx1/Dx1 --> Golpe final G#-

Precoro x 1
Estribo x 2

Bx2/Cx1/Bx1/Dx1 --> Golpe final G#-
Ax1/Bx1/Cx1/Bx1/Cx1/Dx1 --> Golpe final G#-

Precoro x1
Estribo x2
En el riff la base es esta: Bx8/Dx1
Estribo x 2 y Fin xD

 (Por cualquier cosa)

            
            
Suggest correction
Creating personal tab
Creating personal tab
You can edit any tab online and save it as your Personal.

You can edit, replace or remove any tab part or add personal notes – all changes will be seen only by you.

Personal tabs can be accessed anytime from any device, even offline.
Learn more »
Give kudos to tab author, rate the tab!
1 2 3 4 5
comments
print report bad tab
guest
Wanna post a correction for this tab? Suggest correction