Oops, an error
Loading. Please wait.

Yo Soy Libre tab

66 views 1 this week
no commentswrite comment
1 2 3 4 5
3 more votes to show rating
add to favorites
×
Save as Personal and add changes to this tab that will be seen only by you. Learn more ›
×
You can save this tab as Personal to edit and correct it or add notes. All changes will be seen only by you. Learn more »
launch autoscroll
font size
0
reset
how to read this tab
guitar tuner
edit
Autoscroll
slow
fast
+/-
esc
set tempo
stop
Bueno está canción está en la tonalidad de "D" o "Re".
Las notas son las originales y los arpégios pueden poner los
que quieran dentro de las notas, les paso los que más me gustan.
a mi parecer.

El intro empieza con una entrada de octavas.

e----------------------------------------
B-10-10-10--8-8-8--7-7-7--8-8-8--7-7--8-8
G-X--X--X---X-X-X--X-X-X--X-X-X--X-X--X-X (BIS X 8)
D-7--7--7--5-5-5--4-4-4--5-5-5--4-4--5-5-
A----------------------------------------
E----------------------------------------

Estrofa I
 D
Los ciegos verán por tí

Los mudos cantaran
 (G)
B---3-----------------------------
G--4------------------------------
D-5-------------------------------
G
los cuerpos vivirán
                       D
los pueblos te adorarán

  (D)  (Dsus9)
B---7----5-----------------------
G--7----7------------------------
D-7----7-------------------------
D
Yo soy libre!!, yo soy libreee!!

Coro:
D
Libre para correr, libre para correr,
        G
libre para danzar, libre para danzar,
       Bm                        A
libre para vivir por tí, libre para vivir por tí
          D
Yo soy libre, yo soy libre!!

(Repite estrófa I)

Yo soy libre, yo soy libre!!!
 (D)
B--------------------------------
G---------45424--------4542------
D-5555555-------5555555----------

(Repite coro)

Sólo guitarra
e------------------------------10--------
B----------------10--14vv--10--10-10-----
G--7-9-11v-11bt-9--6---------------------
D----------------------------------------
A----------------------------------------
E----------------------------------------

D
Ohhhh ohhhh ohhhh, Ohhhh ohhhh ohhhh
G
Ohhhh ohhhh ohhhh, Ohhhh ohhhh ohhhh
Bm
Ohhhh ohhhh ohhhh ohhhh, Ohhhh ohhhh ohhhh ohhhh
A                        D
Ohhhh ohhhh ohhhh ohhhh, libre, libre, libre.... (BIS X 2)

(Repite coro) y secuencia final en "D" terminando en la misma.

bt:Estirada y toque arriba.
v: Vibrato.
vv: Vibrato alterado.

Brothers espero que les guste che, asi va la canción, disfruten
mi correo es flama_sagrada@ "God bless"

            
            
Suggest correction
Creating personal tab
Creating personal tab
You can edit any tab online and save it as your Personal.

You can edit, replace or remove any tab part or add personal notes – all changes will be seen only by you.

Personal tabs can be accessed anytime from any device, even offline.
Learn more »
Give kudos to tab author, rate the tab!
1 2 3 4 5
comments
print report bad tab
guest
Wanna post a correction for this tab? Suggest correction