Oops, an error
Loading. Please wait.

Adelante tab

version 1
version 1

Whole song

95 views 1 this week
no commentswrite comment
1 2 3 4 5
3 more votes to show rating
add to favorites
×
Save as Personal and add changes to this tab that will be seen only by you. Learn more ›
×
You can save this tab as Personal to edit and correct it or add notes. All changes will be seen only by you. Learn more »
launch autoscroll
font size
0
reset
how to read this tab
guitar tuner
edit
Autoscroll
slow
fast
+/-
esc
set tempo
stop
Intro/Verso 1

Am C G Em x2

Am        C            G      Em
  que la muerte me sorprenda

Am     C             G     A|-3-2-0---|
  caminando hacia delante  E|-------3-|

Dm          F
  como supe ir

         Am  C  G  Em
  hasta hoy

No creo que sea tarde
si me mantengo como el rio
que renueva sus aguas

sin fin! (Riff 1)

Riff 1
E|-----------------------------------------------------------|
B|-----------------------------------------------------------|
G|-----------------------------------------------------------|
D|-----------------------------------------------------------|
A|--5-7--8-7-5-7------5-6-5-3--7--8-7-5-7------3-5-6---------|
E|--3-5--6-5-3-5---3-----------5--6-5-3-5---3----------------|x2


A5
Cuanta sangre cuanta inpunidad

                       F#5 G5
cuanta corupcion se repetira

A5
Almas cerrantes no tienen paz

                       F#5 G5 C5 D5 E5
almas vivas sufren la mentira


E5           D5
  Gran frase que

              G5    D5  E5   C5 D5 E5
  recorre los paaaalaaadares

E5                D5
  si asi no lo hiciere

                   G5       D5    E5
  Dios y la patria me lo demande


Punteo del estribillo
E|-------------------------------------------------|
B|-------------------------------------------------|
G|-------------------------------------------------|
D|-----------7-----------------7-------------------|
A|--2--------5---------2--5----5----2----3-5-7-----|
E|--0--0-2-3-----5-3-5----3---------0--------------|

Am C G Em x2

E|---------------------------------------------------------------|
B|---------------------------------------------------------------|
G|--------5--5h7p5-----------------5-7----------5--5-------------|
D|-7--7---5---------5--5----2--2---------7--7---5--5---5--5----2-|
A|-7--7-------------5--5----2--2---------7--7----------5--5----2-|
E|---------------------------------------------------------------|

Es digno de sobre exaltar
la autoayuda del pueblo
frente a la adversidad

vive su fe! (Riff 1)

trubios fondos monetarios
y campañas pre electorales
Vasallaje en ropa popular
Camuflaje cruel de ayer y hoy

Traiciones que suma
Listad de muertos y heridos
Por no tener
Un honesto conductor

Solo (improvisen..estoy trabajando en eso)

Que la muerte me sorprenda
Caminando hacia delante
No creo sea tarde
Si he de ver cumplir
Las gran Gran frase
Que recorre los paladares
Si así no lo hiciere
Dios y la patria me lo demande

Am C G Em

E|----------------------7-10--8-7--------------|
B|-8h10~~~------------8-----------8------------|
G|----------------7h9---------------7----------|
D|---------------------------------------------|
A|---------------------------------------------|
E|---------------------------------------------|

E|-10/12-10/12~~~-----8-10-10---8-7---------7-8--------|
B|----------------------------------10-8-10-----10-----|
G|-----------------------------------------------------|
D|-----------------------------------------------------|
A|-----------------------------------------------------|
E|-----------------------------------------------------|

E|----------------------------------------7-8-10/12-8-7----------|
B|-----------------------------------8-10---------------10-8-----|
G|-7-9--7------------------------7-9-------------------------9~~-|
D|--------10--7-10--7----------9---------------------------------|
A|--------------------10~~~--------------------------------------|
E|---------------------------------------------------------------|

E|-17-17-17~~---------17-20-19--17--------------------17-20-19------|
B|--------------17-20--------------20-17~~------17-20----------20~~-|
G|-------------------------------------------19---------------------|
D|------------------------------------------------------------------|
A|------------------------------------------------------------------|
E|------------------------------------------------------------------|

E|-----------------------------------------------------------------|
B|-13-15~~----12b13b12-10-8-10~~----15~~------12-13-15h17-15h17~~--|
G|-----------------------------------------14----------------------|
D|-----------------------------------------------------------------|
A|-----------------------------------------------------------------|
E|-----------------------------------------------------------------|

E|-15-13-12----------------------------------------------------|
B|----------15-13-12-12b13b12-----------------------8----------|
G|----------------------------14-12---------------9---9~~~~----|
D|----------------------------------14-12-9-10-12--------------|
A|-------------------------------------------------------------|
E|-------------------------------------------------------------|

aca les adelante del tano...si alguien tiene el solo mandemelo a
franserj@ y preguntas tambien a mi mail..
aguante el tano!!!!!!!!

            
            
Suggest correction
Creating personal tab
Creating personal tab
You can edit any tab online and save it as your Personal.

You can edit, replace or remove any tab part or add personal notes – all changes will be seen only by you.

Personal tabs can be accessed anytime from any device, even offline.
Learn more »
Give kudos to tab author, rate the tab!
1 2 3 4 5
comments
print report bad tab
guest
Wanna post a correction for this tab? Suggest correction