Oops, an error
Loading. Please wait.

El Embalado tab

24 views 1 this week
no commentswrite comment
1 2 3 4 5
3 more votes to show rating
add to favorites
×
Save as Personal and add changes to this tab that will be seen only by you. Learn more ›
×
You can save this tab as Personal to edit and correct it or add notes. All changes will be seen only by you. Learn more »
launch autoscroll
font size
0
reset
how to read this tab
guitar tuner
edit
Autoscroll
slow
fast
+/-
esc
set tempo
stop
Bueno..les dejo este muy buen tema del tano...casi todo esta bien.
el solo tiene errores pero dentro de todo suena bien..cualquier duda
o correccion..a mi mail(franserj@ che y
aguante EL TANO!!!!!!!!

Intro/Riff 1 (x2)
E|-------------------------------------|
B|-------------------------------------|
G|-------------------------------------|
D|-------------------------7-----------|
A|--2---------7------------5-----------|
E|--0---6-5-3-5----6-5-3-5-------------|

E|-------------------------------------|
B|-------------------------------------|
G|-------------------------------------|
D|-------------------------------------|
A|--2---------7------------------------|
E|--0---6-5-3-5----3-3-5-6-5-3-5-------|

E5                       G5
Entre tantra locura nos quedo la verdad  E|-6-5-3-5-|

E5                     A#5
y la verdad es seguir unidos

        A5
en un fuerte sentimiento

Intro/Riff 1

Se que en tus hijos vive la libertad
que son con vos en tus entrañas
los de afuera son de palo

Riff 2
E|------------------|
B|------------------|
G|------------------|
D|--9--8------------|
A|--7--6---6-5------|
E|-------------6----|

C5           D5     G5    E5
Te escribo y es poco ayudar

Riff 2

C5        B5         A#5
Se que mi carta esperas

     A5       G5     F5
como yo te espero a vos

E|-----------------------------|
B|-----------------------------|
G|-----------------------------|
D|-----------------------------|
A|-2-2-----2-2-----2-2---------|
E|-0-0-----0-0-----0-0---------|

Solo
E|---------------------------------------------|
B|--3----------15-12----------15-15full--------|
G|--5full------------14-12-14------------------|
D|---------------------------------------------|
A|---------------------------------------------|
E|---------------------------------------------|

E|----------------------------------------------------|
B|-------------------17-19-20full------17-20----------|
G|-------------17-19-------------------------19full---|
D|-------17-19----------------------------------------|
A|-17-19----------------------------------------------|
E|----------------------------------------------------|

E|------------------------------------------------|
B|---------------------15full~~~~~~---------12-15-|
G|------------------------------------------------|
D|-12full--12-9----12-----------------------------|
A|--------------12--------------------------------|
E|------------------------------------------------|

E|-12-15-12---12-15-12-16-12-15-12----12-------------------------|
B|----------15---------------------15----15-12-15-12-------------|
G|---------------------------------------------------14-12-14-12-|
D|---------------------------------------------------------------|
A|---------------------------------------------------------------|
E|---------------------------------------------------------------|

E|------------------------------------------------------|
B|---------------------------10full---10-8---8full------|
G|-----------------------------------------9------------|
D|-14-12------------------------------------------------|
A|-------14-12------------------------------------------|
E|-------------14-12~~~---------------------------------|


E|-------------------------------------------------------|
B|-------------------------------------------------------|
G|-9-7---7-----------------------------------------------|
D|-----9---9-7-9-7----5-7-7full-7---5-7-7full-7----------|
A|------------------7-------------7-------------7-5-7~~~-|
E|-------------------------------------------------------|

E|-------------14-15-17-17full--------------15-17-18full---|
B|----14-15-17---------------------15-17-18----------------|
G|-15------------------------------------------------------|
D|---------------------------------------------------------|
A|---------------------------------------------------------|
E|---------------------------------------------------------|

E|-18-17-15----15-15full------15b18---15-------------|
B|----------17---------------------------15full~~~~--|
G|---------------------------------------------------|
D|---------------------------------------------------|
A|---------------------------------------------------|
E|---------------------------------------------------|

E|-------------------------------------------|
B|--17-15-12----12---------------------------|
G|-----------14----14-12----12---------------|
D|-----------------------14----14~~~~~~------|
A|-----------------------------------------2-|
E|-----------------------------------------0-|

Por embalado fuiste a dar al encierro
de seguro esto fue por mirar sin mirar

Intro/Riff

Recordando los viajes en esta cancion
libres de pueblo en pueblo consumiendo...
LA vida

Riff 2

Confio se que aprenderas

Riff 2

con quien y donde has de estar

Riff 2

te escribo y es poco ayudar

Riff 2

se que mi carta esperas como yo

te espero a vos.

Final
E|-------------------------------|
B|-------------------------------|
G|-------------------------------|
D|--2-2------2-2-----------------|
A|--2-2--2---2-2--2--------------|
E|-------0--------0--------------|

            
            
Suggest correction
Creating personal tab
Creating personal tab
You can edit any tab online and save it as your Personal.

You can edit, replace or remove any tab part or add personal notes – all changes will be seen only by you.

Personal tabs can be accessed anytime from any device, even offline.
Learn more »
Give kudos to tab author, rate the tab!
1 2 3 4 5
comments
print report bad tab
guest
Wanna post a correction for this tab? Suggest correction