Oops, an error
Loading. Please wait.

Encuentro tab

119 views 3 this week
no commentswrite comment
1 2 3 4 5
3 more votes to show rating
add to favorites
×
Save as Personal and add changes to this tab that will be seen only by you. Learn more ›
×
You can save this tab as Personal to edit and correct it or add notes. All changes will be seen only by you. Learn more »
launch autoscroll
font size
0
reset
how to read this tab
guitar tuner
edit
Autoscroll
slow
fast
+/-
esc
set tempo
stop
ESTA TABLATURA LA HICE YO
si quieren ponerla en otro lado al menos
digan que no la hicieron uds no hagan como
esta persona 'ieldcs@ que saco las
tablaturas (De Pie y Tenga en mano Tallador)
de la pagina del tano (
le saco mi nombre y las puso aca como si las hubiera hecho el.


cualquier correcion o duda escribanme a
dad_almafuerte@


intro

    G#m                            E                       B
E-|--------------------------------x-------------0---------2----------2------2--------------|
B-|---4-----4-----4------------4---0------0------0--0---0--2--------2---2--4-4------------4-|
G-|-----4-----4-------4----4h6-----1--1------1------1------4----4-4----------4----4-----4---|
D-|-------6-----6-------6----------2----2------2------2----4--4--------------4--4-----4-----|
A-|--------------------------------2-----------------------2-----------------2------2-------|
E-|--------------------------------0-----------------------x--------------------------------|

     A
E-|--------------------|
B-|----2--2--4--5/2--2-|
G-|-------2--4--6/2--2-|
D-|--------------------|
A-|----0---------------|
E-|--------------------|

G#m E B A(intro)
Al pasar por las Altas Cumbres
Fui a parar entre las serranias
Dentro mio estan las cosas
que siempre busque

E [F# G#m] E F# C#m  *Riff
Reflexiones diarias,

   *Riff
E-|------------------------|------------||
B-|-------12--11--9------9-|-9-(11)--7--||
G-|--8/9-------------11----|------------||
D-|------------------------|------------||
A-|------------------------|------------||
E-|------------------------|------------||


E [F# G#m] E F# B
Me dicen que abra las puertas

    B                     A                              G#m             F#
E-|------------------------------------------------------------------------2---------2--|
B-|-------2----------2----------2----------2--------2--4-5-----4-----------2-2-0-----2--|
G-|-----4---4------4---4------4---4--4-4-----4--4-4----------4---4--6--4-4-------3-3----|
D-|---4----------4----------4------------------------------6-------------2-------4------|
A-|-2----------2----------0--------------0-------------------------------4-------4------|
E-|------------------------------------------------------4---------------2-------2------|


*1
Bm                 F#m
No busco en quien confiar
G               A
Porque para confiar
A
Tengo mi dignidad

*1 Bm                   F#m             G         A
E-|----------0----------------0-------------------0---------|
B-|-3----3-----3---3--------------------3-----3-2-----3--2--|
G-|-4--4---4-----4---4--2-4-2---4-2-4-0-4-4-6---------2--2--|
D-|-4-------------------4---------------5-----------2-------|
A-|-2-------------------4---------------5---------0---------|
E-|---------------------2---------------3-------------------|

Antes del SOLO

    G#m          E         F#
E-|-----------------------------------------------------------------------------------------------------|
B-|--------0-----------0---------0-----------0---------0-----------0---------0----------0---------0-----|
G-|------3---3-------3---3-----3---3-------3---3-----3---3-------3---3-----3---3------3---3-----3---3---|
D-|----4-------4---4---------4-------4---4---------4-------4---4---------4-------4--4---------4-------4-|
A-|-----------------------------------------------------------------------------------------------------|
E-|-4------------0---------2-----------4---------0-----------2---------4-----------4--------0-----------|

E-|--------------------------2-------------------------2--|
B-|--------0----------0------2-2/4--4------5-----------0--|
G-|------3---3------3---3------2/4--4------4--------------|
D-|----4----------4--------------------4h6---4-2-1-4/2----|
A-|------------2-----------2------------------------------|
E-|--2----------------------------------------------------|

SOLO (el solo y el Riff me lo dio un flaco (creo se llama Johnny) y yo le cambie unas cositas)

G# E B A E F# ? E-|-------------------------------------------------------------------------------|
B-|------9--11--12--11--9-----------------------------------------------7/9-7-----|
G-|----8------------------8--9h11p9--------8---------8--9--11--9--8---------------|
D-|--9------------------------------9--11------9--11-----------------11-----------|
A-|-------------------------------------------------------------------------------|
E-|-------------------------------------------------------------------------------|

E-|--------------------11-12-11-9-11-12-14-12-11-12-14-16~~--|
B-|----------------------------------------------------------|
G-|--6h8\4--6h8p6---6----------------------------------------|
D-|---------------9------------------------------------------|
A-|----------------------------------------------------------|
E-|----------------------------------------------------------|

G#m E F# B
Creer en si para construir
Lo olvidado y lo abandonado
Puesto que mi mirada esta
En algo mejor

Dejar de apuntar a lo de mas
La vida no es un revolver

SOLO
G# E B A E F#

E-|----------------------------------------------------------------------|
B-|---------------------------------------4-5-4h5p4----------------------|
G-|-------4--6-------------------4-6--4h6-----------6-4-4-4h6p4-3--4-6-7-|
D-|-----4-----------2-1--------4-----------------------------------------|
A-|--2----------2-4-----4-2--0-------------------------------------------|
E-|----------------------------------------------------------------------|

Igual a la serpiente
Que esta mudando su piel
Y que permanece enroscada en si misma
Para después seguir su camino.


    G#m          E         F#
E-|-----------------------------------------------------------------------------------------------------|
B-|--------0-----------0---------0-----------0---------0-----------0---------0----------0---------0-----|
G-|------3---3-------3---3-----3---3-------3---3-----3---3-------3---3-----3---3------3---3-----3---3---|
D-|----4-------4---4---------4-------4---4---------4-------4---4---------4-------4--4---------4-------4-|
A-|-----------------------------------------------------------------------------------------------------|
E-|-4------------0---------2-----------4---------0-----------2---------4-----------4--------0-----------|


                                                                                                x3
E-|--------------------------------------------------------|  |---------2--------------2---------|
B-|--------0---------0-----------0--------0------------0---|  |-----0-----0----------------------|
G-|------3---3-----3---3-------3---3----3---3--------3---3-|  |-------3-----3------3h4---4h3-4h3-|
D-|----4---------4-------4---4--------4-------4----4-------|  |---4-----------4--4---------------|
A-|--------------------------------------------------------|  |----------------------------------|
E-|-2--------- 4-----------4--------0------------2---------|  |-4--------------------------------|

final
E-|------------|
B-|------0--6--|
G-|----3-------|
D-|--4---------|
A-|------------|
E-|------------|

            
            
Suggest correction
Creating personal tab
Creating personal tab
You can edit any tab online and save it as your Personal.

You can edit, replace or remove any tab part or add personal notes – all changes will be seen only by you.

Personal tabs can be accessed anytime from any device, even offline.
Learn more »
Give kudos to tab author, rate the tab!
1 2 3 4 5
comments
print report bad tab
guest
Wanna post a correction for this tab? Suggest correction