Oops, an error
Loading. Please wait.

Rather Be tab

version 5
version 5

Whole song

Interactive

262 views 1 this week
no commentswrite comment
1 2 3 4 5
3 more votes to show rating
add to favorites
×
Save as Personal and add changes to this tab that will be seen only by you. Learn more ›
×
You can save this tab as Personal to edit and correct it or add notes. All changes will be seen only by you. Learn more »
launch autoscroll
font size
0
reset
how to read this tab
guitar tuner
edit
Autoscroll
slow
fast
+/-
esc
set tempo
stop
Author
Difficulty
Rather Be - Clean Bandit ft. Jess Glynne
Tab transposed into C major


[Intro]

e|---------------------------------------------------------------------3-----|
B|---------------------------------------------------------------------------|
G|-----5-5-7-4-------2-2-0---0-----5-5-7-4------2-2-0---0-----5-5-7-4--------|
D|---7--------------3------2------7------------3------2------7---------------|
A|-7--------------3--------------7-----------3--------------7----------------|
E|---------------------------------------------------------------------------|

e|---------------------------------------------------------------------------|
B|---------------------------------------------------------------------------|
G|---2-2-0---0----2-0---2-0--------------------------------------------------|
D|--3------2----------2-----2-2----------------------------------------------|
A|-3-------------------------------------------------------------------------|
E|---------------------------------------------------------------------------|


[Verse 1]

e|---------------------------------------------------------------------------|
B|---------------------------------------------------------------------------|
G|-----2--------------------------------------2------------------------------|
D|-2-5---5-3-5-2--------------------------2-5---5-3-5-2----------------------|
A|---------------3-----------------------------------------------------------|
E|---------------------------------------------------------------------------|
   We're a thousand miles from comfort   We have travelled land and sea
e|---------------------------------------------------------------------------|
B|---------------------------------------------------------------------------|
G|----2----------------------------------------------------------------------|
D|-2-5--5-3-5-2--------------------------2-2---2-----------------------------|
A|--------------3----------------------3-----3---3-5-------------------------|
E|---------------------------------------------------------------------------|
   But as long as you are with me     There's no place I'd rather be 


[Verse 2]

e|---------------------------------------------------------------------------|
B|---------------------------------------------------------------------------|
G|-2-------------------------2-----------------------------------------------|
D|----5-3-5-2------------------5-3-5-2---------------------------------------|
A|------------3------------3-------------------------------------------------|
E|---------------------------------------------------------------------------|
   I would wait forever   Exalted in the scene
e|---------------------------------------------------------------------------|
B|---------------------------------------------------------------------------|
G|---2-----------------------------------------------------------------------|
D|-----5-3-5-2---------------------2-2---2-2---------------------------------|
A|-3-----------3-----------------------3------3-5----------------------------|
E|---------------------------------------------------------------------------|
   As long as I am with you       My heart continues to beat


[Pre-chorus]

e|---------------------------------------------------------------------------|
B|---------------------------------------------------------------------------|
G|---------------------------------------------------------------------------|
D|-2-2-----------------------------------------------------------------------|
A|-----3-3-0-0------------------5-5-2-2-----------5-5-3-3-5-5----------------|
E|---------------------------------------3-3---------------------------------|
   With every step we take     Kyoto to the bay   Strolling so casually 
e|---------------------------------------------------------------------------|
B|---------------------------------------------------------------------------|
G|---------------------------------------------------------------------------|
D|-2-2-----------------------------------------------------------------------|
A|-----3-3-0-0--------------------5-5-2-2----------------5-5-3-3-5-5---------|
E|-----------------------------------------3-3-------------------------------|
  We're different and the same   Get you another name   Switch up the batteries


[Chorus]

e|---------------------------------------------------------------------------|
B|---------------------------------------------------------------------------|
G|-5-----------------------------------------5-------------------------------|
D|---2----5-2-----------------------------------2----5-2---------------------|
A|-----5-3-----5-3-3-5-----------------------------5-3----5-3-3-5------------|
E|---------------------------------------------------------------------------|
  If you gave me a chance I would take it   It's a shot in the dark but I'll make it
e|---------------------------------------------------------------------------|
B|-----3---------------------------------------------------------------------|
G|-5-4---5-4-2---------------------------------------------------------------|
D|-------------5-2-----------------------------------------------------------|
A|-----------------3-5-------------------------------------------------------|
E|---------------------------------------------------------------------------|
  Know with all of your heart you can't shame me  

e|---------------------------------------------------------------------------|
B|---------------------------------------------------------------------------|
G|---------------------------------------------------------------------------|
D|-2-----------2-------------------------------------------------------------|
A|---5-3-3-0-3---5-3-3-5-0---------------------------------------------------|
E|---------------------------------------------------------------------------|
  When I am with you there's no place I'd rather be 

e|---------------------------------------------------------------------------|
B|---------------------3-----------------------------------------------------|
G|-2-2-5-5-5-5-5-2-5-2-------------------------------------------------------|  x3
D|---------------------------------------------------------------------------|
A|---------------------------------------------------------------------------|
E|---------------------------------------------------------------------------|
  N-no, no, no, no, no place I'd rather be

One bar break


[Verse 3]

e|---------------------------------------------------------------------------|
B|---------------------------------------------------------------------------|
G|---2--------------------------2--------------------------------------------|
D|------5-3-5-2-------------------5-3-5-2------------------------------------|
A|-3-------------3------------3----------------------------------------------|
E|---------------------------------------------------------------------------|
   We staked out on a mission   To find our inner peace
e|---------------------------------------------------------------------------|
B|---------------------------------------------------------------------------|
G|-2-------------------------------------------------------------------------|
D|---5-3-5-2--------------------2-2-2----------------------------------------|
A|------------3--------------3--------3-5------------------------------------|
E|---------------------------------------------------------------------------|
  Make it everlasting      So nothing's incomplete  


[Verse 4]

e|---------------------------------------------------------------------------|
B|---------------------------------------------------------------------------|
G|---2------------------------2-----5-2-2------------------------------------|
D|------5-3-5-2-----------------5-5-------5----------------------------------|
A|-3-------------3-----------------------------------------------------------|
E|---------------------------------------------------------------------------|
  It's easy being with you   Sacred simplicity
e|---------------------------------------------------------------------------|
B|---------------------------------------------------------------------------|
G|---2-----------------------------------------------------------------------|
D|-----5-3-5-2---------------------2-2----2----------------------------------|
A|-3-----------3-----------------3------3---3-5------------------------------|
E|---------------------------------------------------------------------------|
   As long as we're together    There's no place I'd rather be


[Pre-chorus]

e|---------------------------------------------------------------------------|
B|---------------------------------------------------------------------------|
G|---------------------------------------------------------------------------|
D|-2-2-----------------------------------------------------------------------|
A|-----3-3-0-0------------------5-5-2-2-----------5-5-3-3-5-5----------------|
E|---------------------------------------3-3---------------------------------|
   With every step we take     Kyoto to the bay   Strolling so casually 
e|---------------------------------------------------------------------------|
B|---------------------------------------------------------------------------|
G|---------------------------------------------------------------------------|
D|-2-2-----------------------------------------------------------------------|
A|-----3-3-0-0--------------------5-5-2-2----------------5-5-3-3-5-5---------|
E|-----------------------------------------3-3-------------------------------|
  We're different and the same   Get you another name   Switch up the batteries


[Chorus]

e|---------------------------------------------------------------------------|
B|---------------------------------------------------------------------------|
G|-5-----------------------------------------5-------------------------------|
D|---2----5-2-----------------------------------2----5-2---------------------|
A|-----5-3-----5-3-3-5-----------------------------5-3----5-3-3-5------------|
E|---------------------------------------------------------------------------|
  If you gave me a chance I would take it   It's a shot in the dark but I'll make it
e|---------------------------------------------------------------------------|
B|-----3---------------------------------------------------------------------|
G|-5-4---5-4-2---------------------------------------------------------------|
D|-------------5-2-----------------------------------------------------------|
A|-----------------3-5-------------------------------------------------------|
E|---------------------------------------------------------------------------|
  Know with all of your heart you can't shame me  

e|---------------------------------------------------------------------------|
B|---------------------------------------------------------------------------|
G|---------------------------------------------------------------------------|
D|-2-----------2-------------------------------------------------------------|
A|---5-3-3-0-3---5-3-3-5-0---------------------------------------------------|
E|---------------------------------------------------------------------------|
  When I am with you there's no place I'd rather be 

e|---------------------------------------------------------------------------|
B|---------------------3-----------------------------------------------------|
G|-2-2-5-5-5-5-5-2-5-2-------------------------------------------------------|  x3
D|---------------------------------------------------------------------------|
A|---------------------------------------------------------------------------|
E|---------------------------------------------------------------------------|
  N-no, no, no, no, no place I'd rather be

A capella (no guitar)
Yeahhhh (etc)


[Chorus/outro]

e|---------------------------------------------------------------------------|
B|---------------------------------------------------------------------------|
G|-5-----------------------------------------5-------------------------------|
D|---2----5-2-----------------------------------2----5-2---------------------|
A|-----5-3-----5-3-3-5-----------------------------5-3----5-3-3-5------------|
E|---------------------------------------------------------------------------|
  If you gave me a chance I would take it   It's a shot in the dark but I'll make it
e|---------------------------------------------------------------------------|
B|-----3---------------------------------------------------------------------|
G|-5-4---5-4-2---------------------------------------------------------------|
D|-------------5-2-----------------------------------------------------------|
A|-----------------3-5-------------------------------------------------------|
E|---------------------------------------------------------------------------|
  Know with all of your heart you can't shame me  

e|---------------------------------------------------------------------------|
B|---------------------------------------------------------------------------|
G|---------------------------------------------------------------------------|
D|-2-----------2-------------------------------------------------------------|
A|---5-3-3-0-3---5-3-3-5-0---------------------------------------------------|
E|---------------------------------------------------------------------------|
  When I am with you there's no place I'd rather be 

e|---------------------------------------------------------------------------|
B|---------------------3-----------------------------------------------------|
G|-2-2-5-5-5-5-5-2-5-2-------------------------------------------------------|  x3
D|---------------------------------------------------------------------------|
A|---------------------------------------------------------------------------|
E|---------------------------------------------------------------------------|
  N-no, no, no, no, no place I'd rather be
 

A capella - "when I am with you there's no place I'd rather be"
Suggest correction
Creating personal tab
Creating personal tab
You can edit any tab online and save it as your Personal.

You can edit, replace or remove any tab part or add personal notes – all changes will be seen only by you.

Personal tabs can be accessed anytime from any device, even offline.
Learn more »
Give kudos to tab author, rate the tab!
1 2 3 4 5
comments
print report bad tab
guest
You may want to rate the tab now too:
select rating
Wanna post a correction for this tab? Suggest correction